ISO-10303-21;
HEADER;
FILE_DESCRIPTION (( 'STEP AP203' ),
    '1' );
FILE_NAME ('Web Model 46664_45314.step',
    '2017-04-10T15:39:34',
    ( '' ),
    ( '' ),
    'SwSTEP 2.0',
    'SolidWorks 2016',
    '' );
FILE_SCHEMA (( 'CONFIG_CONTROL_DESIGN' ));
ENDSEC;

DATA;
#1 = ORGANIZATION ( 'UNSPECIFIED', 'UNSPECIFIED', '' ) ;
#2 = APPROVAL_STATUS ( 'not_yet_approved' ) ;
#3 = APPROVAL ( #19, 'UNSPECIFIED' ) ;
#4 = VERTEX_POINT ( 'NONE', #106 ) ;
#5 = EDGE_LOOP ( 'NONE', ( #70, #28, #35, #30 ) ) ;
#6 = AXIS2_PLACEMENT_3D ( 'NONE', #149, #23, #172 ) ;
#7 = AXIS2_PLACEMENT_3D ( 'NONE', #67, #47, #125 ) ;
#8 = LOCAL_TIME ( 11, 39, 34.00000000000000000, #140 ) ;
#9 = CARTESIAN_POINT ( 'NONE',  ( -6.250000000000000000, 7.654042494670957600E-016, 0.0000000000000000000 ) ) ;
#10 = CC_DESIGN_APPROVAL ( #3, ( #141 ) ) ;
#11 = PERSON_AND_ORGANIZATION_ROLE ( 'creator' ) ;
#12 = CARTESIAN_POINT ( 'NONE',  ( 0.0000000000000000000, 0.0000000000000000000, 0.0000000000000000000 ) ) ;
#13 = APPROVAL_PERSON_ORGANIZATION ( #173, #3, #107 ) ;
#14 = DIRECTION ( 'NONE',  ( 1.000000000000000000, 0.0000000000000000000, 0.0000000000000000000 ) ) ;
#15 = LOCAL_TIME ( 11, 39, 34.00000000000000000, #34 ) ;
#16 = AXIS2_PLACEMENT_3D ( 'NONE', #146, #29, #31 ) ;
#17 = COORDINATED_UNIVERSAL_TIME_OFFSET ( 5, 0, .BEHIND. ) ;
#18 = DIRECTION ( 'NONE',  ( 1.000000000000000000, 0.0000000000000000000, 0.0000000000000000000 ) ) ;
#19 = APPROVAL_STATUS ( 'not_yet_approved' ) ;
#20 = EDGE_LOOP ( 'NONE', ( #167, #126 ) ) ;
#21 = CLOSED_SHELL ( 'NONE', ( #71, #24, #143, #131 ) ) ;
#22 = APPLICATION_CONTEXT ( 'configuration controlled 3d designs of mechanical parts and assemblies' ) ;
#23 = DIRECTION ( 'NONE',  ( -0.0000000000000000000, -0.0000000000000000000, 1.000000000000000000 ) ) ;
#24 = ADVANCED_FACE ( 'NONE', ( #145 ), #132, .F. ) ;
#25 = EDGE_CURVE ( 'NONE', #4, #48, #89, .T. ) ;
#26 = CYLINDRICAL_SURFACE ( 'NONE', #6, 6.250000000000000000 ) ;
#27 = UNCERTAINTY_MEASURE_WITH_UNIT (LENGTH_MEASURE( 1.000000000000000100E-005 ), #136, 'distance_accuracy_value', 'NONE');
#28 = ORIENTED_EDGE ( 'NONE', *, *, #165, .T. ) ;
#29 = DIRECTION ( 'NONE',  ( -0.0000000000000000000, -0.0000000000000000000, 1.000000000000000000 ) ) ;
#30 = ORIENTED_EDGE ( 'NONE', *, *, #119, .F. ) ;
#31 = DIRECTION ( 'NONE',  ( 1.000000000000000000, 0.0000000000000000000, 0.0000000000000000000 ) ) ;
#32 = CC_DESIGN_PERSON_AND_ORGANIZATION_ASSIGNMENT ( #175, #99, ( #63 ) ) ;
#33 = AXIS2_PLACEMENT_3D ( 'NONE', #108, #51, #18 ) ;
#34 = COORDINATED_UNIVERSAL_TIME_OFFSET ( 5, 0, .BEHIND. ) ;
#35 = ORIENTED_EDGE ( 'NONE', *, *, #92, .T. ) ;
#36 = CC_DESIGN_APPROVAL ( #88, ( #117 ) ) ;
#37 = FACE_OUTER_BOUND ( 'NONE', #20, .T. ) ;
#38 = APPROVAL_STATUS ( 'not_yet_approved' ) ;
#39 = ADVANCED_BREP_SHAPE_REPRESENTATION ( 'Web Model 46664_45314', ( #104, #139 ), #85 ) ;
#40 = APPROVAL_ROLE ( '' ) ;
#41 = PLANE ( 'NONE',  #58 ) ;
#42 = CC_DESIGN_PERSON_AND_ORGANIZATION_ASSIGNMENT ( #112, #95, ( #117 ) ) ;
#43 = DIRECTION ( 'NONE',  ( -0.0000000000000000000, -0.0000000000000000000, 1.000000000000000000 ) ) ;
#44 = DESIGN_CONTEXT ( 'detailed design', #122, 'design' ) ;
#45 = SECURITY_CLASSIFICATION_LEVEL ( 'unclassified' ) ;
#46 = FACE_OUTER_BOUND ( 'NONE', #152, .T. ) ;
#47 = DIRECTION ( 'NONE',  ( 0.0000000000000000000, 0.0000000000000000000, -1.000000000000000000 ) ) ;
#48 = VERTEX_POINT ( 'NONE', #66 ) ;
#49 = AXIS2_PLACEMENT_3D ( 'NONE', #94, #97, #14 ) ;
#50 = APPROVAL_DATE_TIME ( #123, #3 ) ;
#51 = DIRECTION ( 'NONE',  ( -0.0000000000000000000, -0.0000000000000000000, 1.000000000000000000 ) ) ;
#52 = CARTESIAN_POINT ( 'NONE',  ( 6.250000000000000000, 0.0000000000000000000, 0.5000000000000000000 ) ) ;
#53 = DATE_TIME_ROLE ( 'classification_date' ) ;
#54 = CC_DESIGN_PERSON_AND_ORGANIZATION_ASSIGNMENT ( #163, #91, ( #117 ) ) ;
#55 = VERTEX_POINT ( 'NONE', #150 ) ;
#56 = PERSON_AND_ORGANIZATION_ROLE ( 'design_owner' ) ;
#57 = PRODUCT_DEFINITION_SHAPE ( 'NONE', 'NONE',  #141 ) ;
#58 = AXIS2_PLACEMENT_3D ( 'NONE', #82, #60, #77 ) ;
#59 = DIRECTION ( 'NONE',  ( 0.0000000000000000000, 0.0000000000000000000, 1.000000000000000000 ) ) ;
#60 = DIRECTION ( 'NONE',  ( 0.0000000000000000000, -0.0000000000000000000, 1.000000000000000000 ) ) ;
#61 = CARTESIAN_POINT ( 'NONE',  ( 0.0000000000000000000, 0.0000000000000000000, 0.0000000000000000000 ) ) ;
#62 = CYLINDRICAL_SURFACE ( 'NONE', #133, 6.250000000000000000 ) ;
#63 = SECURITY_CLASSIFICATION ( '', '', #45 ) ;
#64 = AXIS2_PLACEMENT_3D ( 'NONE', #100, #169, #121 ) ;
#65 = EDGE_CURVE ( 'NONE', #154, #55, #120, .T. ) ;
#66 = CARTESIAN_POINT ( 'NONE',  ( -6.250000000000000000, 7.654042494670957600E-016, -0.5000000000000000000 ) ) ;
#67 = CARTESIAN_POINT ( 'NONE',  ( 0.0000000000000000000, 0.0000000000000000000, 0.5000000000000000000 ) ) ;
#68 = EDGE_CURVE ( 'NONE', #48, #55, #151, .T. ) ;
#69 = APPROVAL_PERSON_ORGANIZATION ( #84, #170, #166 ) ;
#70 = ORIENTED_EDGE ( 'NONE', *, *, #68, .F. ) ;
#71 = ADVANCED_FACE ( 'NONE', ( #46 ), #26, .T. ) ;
#72 = CALENDAR_DATE ( 2017, 10, 4 ) ;
#73 = CALENDAR_DATE ( 2017, 10, 4 ) ;
#74 = DIRECTION ( 'NONE',  ( 1.000000000000000000, 0.0000000000000000000, 0.0000000000000000000 ) ) ;
#75 = VECTOR ( 'NONE', #87, 1000.000000000000000 ) ;
#76 = EDGE_LOOP ( 'NONE', ( #161, #86 ) ) ;
#77 = DIRECTION ( 'NONE',  ( 1.000000000000000000, 0.0000000000000000000, 0.0000000000000000000 ) ) ;
#78 = ORIENTED_EDGE ( 'NONE', *, *, #68, .T. ) ;
#79 = APPROVAL_DATE_TIME ( #135, #88 ) ;
#80 = CC_DESIGN_PERSON_AND_ORGANIZATION_ASSIGNMENT ( #174, #56, ( #103 ) ) ;
#81 = COORDINATED_UNIVERSAL_TIME_OFFSET ( 5, 0, .BEHIND. ) ;
#82 = CARTESIAN_POINT ( 'NONE',  ( 0.0000000000000000000, 0.0000000000000000000, -0.5000000000000000000 ) ) ;
#83 = CALENDAR_DATE ( 2017, 10, 4 ) ;
#84 = PERSON_AND_ORGANIZATION ( #129, #1 ) ;
#85 =( GEOMETRIC_REPRESENTATION_CONTEXT ( 3 ) GLOBAL_UNCERTAINTY_ASSIGNED_CONTEXT ( ( #27 ) ) GLOBAL_UNIT_ASSIGNED_CONTEXT ( ( #136, #153, #96 ) ) REPRESENTATION_CONTEXT ( 'NONE', 'WORKASPACE' ) );
#86 = ORIENTED_EDGE ( 'NONE', *, *, #119, .T. ) ;
#87 = DIRECTION ( 'NONE',  ( -0.0000000000000000000, -0.0000000000000000000, 1.000000000000000000 ) ) ;
#88 = APPROVAL ( #2, 'UNSPECIFIED' ) ;
#89 = CIRCLE ( 'NONE', #64, 6.250000000000000000 ) ;
#90 = APPLICATION_PROTOCOL_DEFINITION ( 'international standard', 'config_control_design', 1994, #122 ) ;
#91 = PERSON_AND_ORGANIZATION_ROLE ( 'creator' ) ;
#92 = EDGE_CURVE ( 'NONE', #4, #154, #134, .T. ) ;
#93 = CALENDAR_DATE ( 2017, 10, 4 ) ;
#94 = CARTESIAN_POINT ( 'NONE',  ( 0.0000000000000000000, 0.0000000000000000000, -0.5000000000000000000 ) ) ;
#95 = PERSON_AND_ORGANIZATION_ROLE ( 'design_supplier' ) ;
#96 =( NAMED_UNIT ( * ) SI_UNIT ( $, .STERADIAN. ) SOLID_ANGLE_UNIT ( ) );
#97 = DIRECTION ( 'NONE',  ( -0.0000000000000000000, -0.0000000000000000000, 1.000000000000000000 ) ) ;
#98 = APPROVAL_DATE_TIME ( #160, #170 ) ;
#99 = PERSON_AND_ORGANIZATION_ROLE ( 'classification_officer' ) ;
#100 = CARTESIAN_POINT ( 'NONE',  ( 0.0000000000000000000, 0.0000000000000000000, -0.5000000000000000000 ) ) ;
#101 = COORDINATED_UNIVERSAL_TIME_OFFSET ( 5, 0, .BEHIND. ) ;
#102 = PERSON_AND_ORGANIZATION ( #129, #1 ) ;
#103 = PRODUCT ( 'Web Model 46664_45314', 'Web Model 46664_45314', '', ( #114 ) ) ;
#104 = MANIFOLD_SOLID_BREP ( 'Revolve1', #21 ) ;
#105 = DATE_TIME_ROLE ( 'creation_date' ) ;
#106 = CARTESIAN_POINT ( 'NONE',  ( 6.250000000000000000, 0.0000000000000000000, -0.5000000000000000000 ) ) ;
#107 = APPROVAL_ROLE ( '' ) ;
#108 = CARTESIAN_POINT ( 'NONE',  ( 0.0000000000000000000, 0.0000000000000000000, 0.5000000000000000000 ) ) ;
#109 = CC_DESIGN_DATE_AND_TIME_ASSIGNMENT ( #137, #105, ( #141 ) ) ;
#110 = LOCAL_TIME ( 11, 39, 34.00000000000000000, #17 ) ;
#111 = CARTESIAN_POINT ( 'NONE',  ( 6.250000000000000000, 0.0000000000000000000, 0.0000000000000000000 ) ) ;
#112 = PERSON_AND_ORGANIZATION ( #129, #1 ) ;
#113 = CIRCLE ( 'NONE', #33, 6.250000000000000000 ) ;
#114 = MECHANICAL_CONTEXT ( 'NONE', #22, 'mechanical' ) ;
#115 = ORIENTED_EDGE ( 'NONE', *, *, #25, .T. ) ;
#116 = ORIENTED_EDGE ( 'NONE', *, *, #92, .F. ) ;
#117 = PRODUCT_DEFINITION_FORMATION_WITH_SPECIFIED_SOURCE ( 'ANY', '', #103, .NOT_KNOWN. ) ;
#118 = LOCAL_TIME ( 11, 39, 34.00000000000000000, #81 ) ;
#119 = EDGE_CURVE ( 'NONE', #55, #154, #113, .T. ) ;
#120 = CIRCLE ( 'NONE', #16, 6.250000000000000000 ) ;
#121 = DIRECTION ( 'NONE',  ( 1.000000000000000000, 0.0000000000000000000, 0.0000000000000000000 ) ) ;
#122 = APPLICATION_CONTEXT ( 'configuration controlled 3d designs of mechanical parts and assemblies' ) ;
#123 = DATE_AND_TIME ( #144, #15 ) ;
#124 = APPROVAL_PERSON_ORGANIZATION ( #102, #88, #40 ) ;
#125 = DIRECTION ( 'NONE',  ( -1.000000000000000000, 0.0000000000000000000, -0.0000000000000000000 ) ) ;
#126 = ORIENTED_EDGE ( 'NONE', *, *, #165, .F. ) ;
#127 = LOCAL_TIME ( 11, 39, 34.00000000000000000, #101 ) ;
#128 = CC_DESIGN_DATE_AND_TIME_ASSIGNMENT ( #158, #53, ( #63 ) ) ;
#129 = PERSON ( 'UNSPECIFIED', 'UNSPECIFIED', 'UNSPECIFIED', ('UNSPECIFIED'), ('UNSPECIFIED'), ('UNSPECIFIED') ) ;
#130 = FACE_OUTER_BOUND ( 'NONE', #5, .T. ) ;
#131 = ADVANCED_FACE ( 'NONE', ( #37 ), #41, .F. ) ;
#132 = PLANE ( 'NONE',  #7 ) ;
#133 = AXIS2_PLACEMENT_3D ( 'NONE', #12, #156, #168 ) ;
#134 = LINE ( 'NONE', #111, #75 ) ;
#135 = DATE_AND_TIME ( #83, #8 ) ;
#136 =( LENGTH_UNIT ( ) NAMED_UNIT ( * ) SI_UNIT ( .MILLI., .METRE. ) );
#137 = DATE_AND_TIME ( #73, #110 ) ;
#138 = PRODUCT_RELATED_PRODUCT_CATEGORY ( 'detail', '', ( #103 ) ) ;
#139 = AXIS2_PLACEMENT_3D ( 'NONE', #61, #59, #74 ) ;
#140 = COORDINATED_UNIVERSAL_TIME_OFFSET ( 5, 0, .BEHIND. ) ;
#141 = PRODUCT_DEFINITION ( 'UNKNOWN', '', #117, #44 ) ;
#142 = ORIENTED_EDGE ( 'NONE', *, *, #65, .F. ) ;
#143 = ADVANCED_FACE ( 'NONE', ( #130 ), #62, .T. ) ;
#144 = CALENDAR_DATE ( 2017, 10, 4 ) ;
#145 = FACE_OUTER_BOUND ( 'NONE', #76, .T. ) ;
#146 = CARTESIAN_POINT ( 'NONE',  ( 0.0000000000000000000, 0.0000000000000000000, 0.5000000000000000000 ) ) ;
#147 = CC_DESIGN_APPROVAL ( #170, ( #63 ) ) ;
#148 = CIRCLE ( 'NONE', #49, 6.250000000000000000 ) ;
#149 = CARTESIAN_POINT ( 'NONE',  ( 0.0000000000000000000, 0.0000000000000000000, 0.0000000000000000000 ) ) ;
#150 = CARTESIAN_POINT ( 'NONE',  ( -6.250000000000000000, 7.654042494670957600E-016, 0.5000000000000000000 ) ) ;
#151 = LINE ( 'NONE', #9, #164 ) ;
#152 = EDGE_LOOP ( 'NONE', ( #115, #78, #142, #116 ) ) ;
#153 =( NAMED_UNIT ( * ) PLANE_ANGLE_UNIT ( ) SI_UNIT ( $, .RADIAN. ) );
#154 = VERTEX_POINT ( 'NONE', #52 ) ;
#155 = CC_DESIGN_PERSON_AND_ORGANIZATION_ASSIGNMENT ( #157, #11, ( #141 ) ) ;
#156 = DIRECTION ( 'NONE',  ( -0.0000000000000000000, -0.0000000000000000000, 1.000000000000000000 ) ) ;
#157 = PERSON_AND_ORGANIZATION ( #129, #1 ) ;
#158 = DATE_AND_TIME ( #72, #118 ) ;
#159 = APPLICATION_PROTOCOL_DEFINITION ( 'international standard', 'config_control_design', 1994, #22 ) ;
#160 = DATE_AND_TIME ( #93, #127 ) ;
#161 = ORIENTED_EDGE ( 'NONE', *, *, #65, .T. ) ;
#162 = CC_DESIGN_SECURITY_CLASSIFICATION ( #63, ( #117 ) ) ;
#163 = PERSON_AND_ORGANIZATION ( #129, #1 ) ;
#164 = VECTOR ( 'NONE', #43, 1000.000000000000000 ) ;
#165 = EDGE_CURVE ( 'NONE', #48, #4, #148, .T. ) ;
#166 = APPROVAL_ROLE ( '' ) ;
#167 = ORIENTED_EDGE ( 'NONE', *, *, #25, .F. ) ;
#168 = DIRECTION ( 'NONE',  ( 1.000000000000000000, 0.0000000000000000000, 0.0000000000000000000 ) ) ;
#169 = DIRECTION ( 'NONE',  ( -0.0000000000000000000, -0.0000000000000000000, 1.000000000000000000 ) ) ;
#170 = APPROVAL ( #38, 'UNSPECIFIED' ) ;
#171 = SHAPE_DEFINITION_REPRESENTATION ( #57, #39 ) ;
#172 = DIRECTION ( 'NONE',  ( 1.000000000000000000, 0.0000000000000000000, 0.0000000000000000000 ) ) ;
#173 = PERSON_AND_ORGANIZATION ( #129, #1 ) ;
#174 = PERSON_AND_ORGANIZATION ( #129, #1 ) ;
#175 = PERSON_AND_ORGANIZATION ( #129, #1 ) ;
ENDSEC;
END-ISO-10303-21;
