ISO-10303-21;
HEADER;
FILE_DESCRIPTION (( 'STEP AP203' ),
    '1' );
FILE_NAME ('Web Model 48459MX_43211.step',
    '2017-10-30T13:22:27',
    ( '' ),
    ( '' ),
    'SwSTEP 2.0',
    'SolidWorks 2016',
    '' );
FILE_SCHEMA (( 'CONFIG_CONTROL_DESIGN' ));
ENDSEC;

DATA;
#1 = DIRECTION ( 'NONE',  ( 0.0000000000000000000, 0.0000000000000000000, -1.000000000000000000 ) ) ;
#2 = APPROVAL_PERSON_ORGANIZATION ( #17, #59, #186 ) ;
#3 = CARTESIAN_POINT ( 'NONE',  ( 24.99999999999999600, 25.00000000000000400, -4.750000000000000000 ) ) ;
#4 = DIRECTION ( 'NONE',  ( -0.0000000000000000000, -0.0000000000000000000, -1.000000000000000000 ) ) ;
#5 = ORIENTED_EDGE ( 'NONE', *, *, #232, .T. ) ;
#6 = ORIENTED_EDGE ( 'NONE', *, *, #160, .F. ) ;
#7 = DATE_AND_TIME ( #109, #159 ) ;
#8 = CC_DESIGN_PERSON_AND_ORGANIZATION_ASSIGNMENT ( #117, #209, ( #48 ) ) ;
#9 = PLANE ( 'NONE',  #46 ) ;
#10 = COORDINATED_UNIVERSAL_TIME_OFFSET ( 5, 0, .BEHIND. ) ;
#11 = CARTESIAN_POINT ( 'NONE',  ( -25.00000000000000400, -25.00000000000000400, 4.750000000000000000 ) ) ;
#12 = LINE ( 'NONE', #133, #198 ) ;
#13 = APPROVAL ( #137, 'UNSPECIFIED' ) ;
#14 = PERSON_AND_ORGANIZATION ( #132, #177 ) ;
#15 = VERTEX_POINT ( 'NONE', #139 ) ;
#16 = ADVANCED_FACE ( 'NONE', ( #97 ), #70, .T. ) ;
#17 = PERSON_AND_ORGANIZATION ( #132, #177 ) ;
#18 = CARTESIAN_POINT ( 'NONE',  ( -25.00000000000000400, 24.99999999999999600, -4.750000000000000000 ) ) ;
#19 = ORIENTED_EDGE ( 'NONE', *, *, #213, .T. ) ;
#20 = ADVANCED_FACE ( 'NONE', ( #91 ), #153, .F. ) ;
#21 = LOCAL_TIME ( 9, 22, 27.00000000000000000, #129 ) ;
#22 = LINE ( 'NONE', #205, #154 ) ;
#23 = CARTESIAN_POINT ( 'NONE',  ( -25.00000000000000400, -25.00000000000000400, 4.750000000000000000 ) ) ;
#24 = AXIS2_PLACEMENT_3D ( 'NONE', #23, #223, #1 ) ;
#25 = APPROVAL_ROLE ( '' ) ;
#26 = DATE_AND_TIME ( #224, #76 ) ;
#27 = SECURITY_CLASSIFICATION_LEVEL ( 'unclassified' ) ;
#28 = CARTESIAN_POINT ( 'NONE',  ( 24.99999999999999600, 25.00000000000000400, 4.750000000000000000 ) ) ;
#29 = VERTEX_POINT ( 'NONE', #193 ) ;
#30 = DIRECTION ( 'NONE',  ( 1.000000000000000000, 0.0000000000000000000, -0.0000000000000000000 ) ) ;
#31 = ORIENTED_EDGE ( 'NONE', *, *, #120, .F. ) ;
#32 = CC_DESIGN_SECURITY_CLASSIFICATION ( #75, ( #48 ) ) ;
#33 = CC_DESIGN_PERSON_AND_ORGANIZATION_ASSIGNMENT ( #128, #69, ( #235 ) ) ;
#34 = VECTOR ( 'NONE', #134, 1000.000000000000000 ) ;
#35 = LINE ( 'NONE', #98, #144 ) ;
#36 = ORIENTED_EDGE ( 'NONE', *, *, #172, .F. ) ;
#37 = AXIS2_PLACEMENT_3D ( 'NONE', #135, #233, #231 ) ;
#38 = LINE ( 'NONE', #3, #151 ) ;
#39 = CARTESIAN_POINT ( 'NONE',  ( 24.99999999999999600, -24.99999999999999600, 4.750000000000000000 ) ) ;
#40 = CALENDAR_DATE ( 2017, 30, 10 ) ;
#41 = DIRECTION ( 'NONE',  ( 0.0000000000000000000, 1.000000000000000000, 0.0000000000000000000 ) ) ;
#42 = ORIENTED_EDGE ( 'NONE', *, *, #201, .F. ) ;
#43 = ORIENTED_EDGE ( 'NONE', *, *, #62, .T. ) ;
#44 = DIRECTION ( 'NONE',  ( -1.000000000000000000, -1.387778780781445700E-016, 0.0000000000000000000 ) ) ;
#45 = MECHANICAL_CONTEXT ( 'NONE', #82, 'mechanical' ) ;
#46 = AXIS2_PLACEMENT_3D ( 'NONE', #215, #100, #89 ) ;
#47 = APPLICATION_PROTOCOL_DEFINITION ( 'international standard', 'config_control_design', 1994, #138 ) ;
#48 = PRODUCT_DEFINITION_FORMATION_WITH_SPECIFIED_SOURCE ( 'ANY', '', #81, .NOT_KNOWN. ) ;
#49 = APPROVAL_DATE_TIME ( #211, #236 ) ;
#50 = PLANE ( 'NONE',  #158 ) ;
#51 = ORIENTED_EDGE ( 'NONE', *, *, #172, .T. ) ;
#52 = VECTOR ( 'NONE', #202, 1000.000000000000000 ) ;
#53 = ORIENTED_EDGE ( 'NONE', *, *, #184, .F. ) ;
#54 = VECTOR ( 'NONE', #4, 1000.000000000000000 ) ;
#55 = CC_DESIGN_PERSON_AND_ORGANIZATION_ASSIGNMENT ( #106, #80, ( #81 ) ) ;
#56 = CALENDAR_DATE ( 2017, 30, 10 ) ;
#57 = ADVANCED_FACE ( 'NONE', ( #141 ), #9, .F. ) ;
#58 = DIRECTION ( 'NONE',  ( 0.0000000000000000000, 1.000000000000000000, 0.0000000000000000000 ) ) ;
#59 = APPROVAL ( #212, 'UNSPECIFIED' ) ;
#60 = CARTESIAN_POINT ( 'NONE',  ( 24.99999999999999600, 25.00000000000000400, -4.750000000000000000 ) ) ;
#61 = CARTESIAN_POINT ( 'NONE',  ( 24.99999999999999600, 25.00000000000000400, 4.750000000000000000 ) ) ;
#62 = EDGE_CURVE ( 'NONE', #15, #29, #35, .T. ) ;
#63 = PRODUCT_DEFINITION_SHAPE ( 'NONE', 'NONE',  #235 ) ;
#64 = PERSON_AND_ORGANIZATION ( #132, #177 ) ;
#65 = LINE ( 'NONE', #164, #107 ) ;
#66 = EDGE_LOOP ( 'NONE', ( #214, #5, #167, #77 ) ) ;
#67 = DATE_TIME_ROLE ( 'creation_date' ) ;
#68 =( LENGTH_UNIT ( ) NAMED_UNIT ( * ) SI_UNIT ( .MILLI., .METRE. ) );
#69 = PERSON_AND_ORGANIZATION_ROLE ( 'creator' ) ;
#70 = PLANE ( 'NONE',  #185 ) ;
#71 =( GEOMETRIC_REPRESENTATION_CONTEXT ( 3 ) GLOBAL_UNCERTAINTY_ASSIGNED_CONTEXT ( ( #113 ) ) GLOBAL_UNIT_ASSIGNED_CONTEXT ( ( #68, #84, #229 ) ) REPRESENTATION_CONTEXT ( 'NONE', 'WORKASPACE' ) );
#72 = LINE ( 'NONE', #39, #34 ) ;
#73 = LOCAL_TIME ( 9, 22, 27.00000000000000000, #203 ) ;
#74 = VERTEX_POINT ( 'NONE', #11 ) ;
#75 = SECURITY_CLASSIFICATION ( '', '', #27 ) ;
#76 = LOCAL_TIME ( 9, 22, 27.00000000000000000, #166 ) ;
#77 = ORIENTED_EDGE ( 'NONE', *, *, #120, .T. ) ;
#78 = EDGE_LOOP ( 'NONE', ( #51, #162, #53, #43 ) ) ;
#79 = DIRECTION ( 'NONE',  ( -1.000000000000000000, -1.387778780781445700E-016, 0.0000000000000000000 ) ) ;
#80 = PERSON_AND_ORGANIZATION_ROLE ( 'design_owner' ) ;
#81 = PRODUCT ( 'Web Model 48459MX_43211', 'Web Model 48459MX_43211', '', ( #45 ) ) ;
#82 = APPLICATION_CONTEXT ( 'configuration controlled 3d designs of mechanical parts and assemblies' ) ;
#83 = DIRECTION ( 'NONE',  ( 1.000000000000000000, 1.387778780781445700E-016, 0.0000000000000000000 ) ) ;
#84 =( NAMED_UNIT ( * ) PLANE_ANGLE_UNIT ( ) SI_UNIT ( $, .RADIAN. ) );
#85 = PRODUCT_RELATED_PRODUCT_CATEGORY ( 'detail', '', ( #81 ) ) ;
#86 = DIRECTION ( 'NONE',  ( 1.387778780781445700E-016, -1.000000000000000000, 0.0000000000000000000 ) ) ;
#87 = APPROVAL_PERSON_ORGANIZATION ( #14, #236, #169 ) ;
#88 = FACE_OUTER_BOUND ( 'NONE', #199, .T. ) ;
#89 = DIRECTION ( 'NONE',  ( 0.0000000000000000000, 0.0000000000000000000, 1.000000000000000000 ) ) ;
#90 = EDGE_CURVE ( 'NONE', #226, #191, #225, .T. ) ;
#91 = FACE_OUTER_BOUND ( 'NONE', #178, .T. ) ;
#92 = EDGE_LOOP ( 'NONE', ( #145, #127, #31, #130 ) ) ;
#93 = CARTESIAN_POINT ( 'NONE',  ( 24.99999999999999600, -24.99999999999999600, 4.750000000000000000 ) ) ;
#94 = DIRECTION ( 'NONE',  ( 1.000000000000000000, 1.387778780781445700E-016, -0.0000000000000000000 ) ) ;
#95 = ADVANCED_FACE ( 'NONE', ( #179 ), #50, .F. ) ;
#96 = DIRECTION ( 'NONE',  ( -0.0000000000000000000, -1.000000000000000000, -0.0000000000000000000 ) ) ;
#97 = FACE_OUTER_BOUND ( 'NONE', #66, .T. ) ;
#98 = CARTESIAN_POINT ( 'NONE',  ( 24.99999999999999600, -24.99999999999999600, 4.750000000000000000 ) ) ;
#99 = CALENDAR_DATE ( 2017, 30, 10 ) ;
#100 = DIRECTION ( 'NONE',  ( -1.000000000000000000, 0.0000000000000000000, 0.0000000000000000000 ) ) ;
#101 = CC_DESIGN_PERSON_AND_ORGANIZATION_ASSIGNMENT ( #197, #234, ( #48 ) ) ;
#102 = DIRECTION ( 'NONE',  ( 0.0000000000000000000, -0.0000000000000000000, 1.000000000000000000 ) ) ;
#103 = LINE ( 'NONE', #165, #54 ) ;
#104 = EDGE_CURVE ( 'NONE', #228, #192, #221, .T. ) ;
#105 = CARTESIAN_POINT ( 'NONE',  ( -25.00000000000000400, -25.00000000000000400, -4.750000000000000000 ) ) ;
#106 = PERSON_AND_ORGANIZATION ( #132, #177 ) ;
#107 = VECTOR ( 'NONE', #58, 1000.000000000000000 ) ;
#108 = VERTEX_POINT ( 'NONE', #105 ) ;
#109 = CALENDAR_DATE ( 2017, 30, 10 ) ;
#110 = ADVANCED_FACE ( 'NONE', ( #143 ), #183, .F. ) ;
#111 = AXIS2_PLACEMENT_3D ( 'NONE', #126, #123, #190 ) ;
#112 = PERSON_AND_ORGANIZATION ( #132, #177 ) ;
#113 = UNCERTAINTY_MEASURE_WITH_UNIT (LENGTH_MEASURE( 1.000000000000000100E-005 ), #68, 'distance_accuracy_value', 'NONE');
#114 = DIRECTION ( 'NONE',  ( -1.387778780781445700E-016, 1.000000000000000000, 0.0000000000000000000 ) ) ;
#115 = ORIENTED_EDGE ( 'NONE', *, *, #175, .T. ) ;
#116 = CARTESIAN_POINT ( 'NONE',  ( 24.99999999999999600, 25.00000000000000400, 4.750000000000000000 ) ) ;
#117 = PERSON_AND_ORGANIZATION ( #132, #177 ) ;
#118 = LINE ( 'NONE', #147, #124 ) ;
#119 = ORIENTED_EDGE ( 'NONE', *, *, #62, .F. ) ;
#120 = EDGE_CURVE ( 'NONE', #228, #226, #217, .T. ) ;
#121 = DIRECTION ( 'NONE',  ( -0.0000000000000000000, -0.0000000000000000000, -1.000000000000000000 ) ) ;
#122 = DATE_TIME_ROLE ( 'classification_date' ) ;
#123 = DIRECTION ( 'NONE',  ( 0.0000000000000000000, -0.0000000000000000000, 1.000000000000000000 ) ) ;
#124 = VECTOR ( 'NONE', #204, 1000.000000000000000 ) ;
#125 = ORIENTED_EDGE ( 'NONE', *, *, #175, .F. ) ;
#126 = CARTESIAN_POINT ( 'NONE',  ( 0.0000000000000000000, 0.0000000000000000000, -4.750000000000000000 ) ) ;
#127 = ORIENTED_EDGE ( 'NONE', *, *, #90, .F. ) ;
#128 = PERSON_AND_ORGANIZATION ( #132, #177 ) ;
#129 = COORDINATED_UNIVERSAL_TIME_OFFSET ( 5, 0, .BEHIND. ) ;
#130 = ORIENTED_EDGE ( 'NONE', *, *, #104, .T. ) ;
#131 = LOCAL_TIME ( 9, 22, 27.00000000000000000, #10 ) ;
#132 = PERSON ( 'UNSPECIFIED', 'UNSPECIFIED', 'UNSPECIFIED', ('UNSPECIFIED'), ('UNSPECIFIED'), ('UNSPECIFIED') ) ;
#133 = CARTESIAN_POINT ( 'NONE',  ( -25.00000000000000400, -25.00000000000000400, -4.750000000000000000 ) ) ;
#134 = DIRECTION ( 'NONE',  ( 1.000000000000000000, 1.387778780781445700E-016, -0.0000000000000000000 ) ) ;
#135 = CARTESIAN_POINT ( 'NONE',  ( 0.0000000000000000000, 0.0000000000000000000, 0.0000000000000000000 ) ) ;
#136 = AXIS2_PLACEMENT_3D ( 'NONE', #93, #114, #181 ) ;
#137 = APPROVAL_STATUS ( 'not_yet_approved' ) ;
#138 = APPLICATION_CONTEXT ( 'configuration controlled 3d designs of mechanical parts and assemblies' ) ;
#139 = CARTESIAN_POINT ( 'NONE',  ( 24.99999999999999600, -24.99999999999999600, 4.750000000000000000 ) ) ;
#140 = CARTESIAN_POINT ( 'NONE',  ( 0.0000000000000000000, 0.0000000000000000000, 4.750000000000000000 ) ) ;
#141 = FACE_OUTER_BOUND ( 'NONE', #78, .T. ) ;
#142 = APPROVAL_DATE_TIME ( #189, #13 ) ;
#143 = FACE_OUTER_BOUND ( 'NONE', #220, .T. ) ;
#144 = VECTOR ( 'NONE', #121, 1000.000000000000000 ) ;
#145 = ORIENTED_EDGE ( 'NONE', *, *, #201, .T. ) ;
#146 = APPROVAL_PERSON_ORGANIZATION ( #64, #13, #25 ) ;
#147 = CARTESIAN_POINT ( 'NONE',  ( -25.00000000000000400, -25.00000000000000400, 4.750000000000000000 ) ) ;
#148 = ADVANCED_FACE ( 'NONE', ( #88 ), #182, .F. ) ;
#149 = CARTESIAN_POINT ( 'NONE',  ( -25.00000000000000400, 24.99999999999999600, 4.750000000000000000 ) ) ;
#150 = ADVANCED_BREP_SHAPE_REPRESENTATION ( 'Web Model 48459MX_43211', ( #194, #37 ), #71 ) ;
#151 = VECTOR ( 'NONE', #79, 1000.000000000000000 ) ;
#152 = PERSON_AND_ORGANIZATION_ROLE ( 'classification_officer' ) ;
#153 = PLANE ( 'NONE',  #111 ) ;
#154 = VECTOR ( 'NONE', #94, 1000.000000000000000 ) ;
#155 = ORIENTED_EDGE ( 'NONE', *, *, #196, .F. ) ;
#156 = ORIENTED_EDGE ( 'NONE', *, *, #213, .F. ) ;
#157 = CARTESIAN_POINT ( 'NONE',  ( -25.00000000000000400, 24.99999999999999600, 4.750000000000000000 ) ) ;
#158 = AXIS2_PLACEMENT_3D ( 'NONE', #28, #86, #83 ) ;
#159 = LOCAL_TIME ( 9, 22, 27.00000000000000000, #207 ) ;
#160 = EDGE_CURVE ( 'NONE', #226, #74, #118, .T. ) ;
#161 = APPROVAL_DATE_TIME ( #216, #59 ) ;
#162 = ORIENTED_EDGE ( 'NONE', *, *, #104, .F. ) ;
#163 = CC_DESIGN_APPROVAL ( #236, ( #235 ) ) ;
#164 = CARTESIAN_POINT ( 'NONE',  ( 24.99999999999999600, -24.99999999999999600, 4.750000000000000000 ) ) ;
#165 = CARTESIAN_POINT ( 'NONE',  ( -25.00000000000000400, -25.00000000000000400, 4.750000000000000000 ) ) ;
#166 = COORDINATED_UNIVERSAL_TIME_OFFSET ( 5, 0, .BEHIND. ) ;
#167 = ORIENTED_EDGE ( 'NONE', *, *, #184, .T. ) ;
#168 = APPLICATION_PROTOCOL_DEFINITION ( 'international standard', 'config_control_design', 1994, #82 ) ;
#169 = APPROVAL_ROLE ( '' ) ;
#170 = CC_DESIGN_DATE_AND_TIME_ASSIGNMENT ( #26, #67, ( #235 ) ) ;
#171 = APPROVAL_STATUS ( 'not_yet_approved' ) ;
#172 = EDGE_CURVE ( 'NONE', #29, #192, #230, .T. ) ;
#173 = VECTOR ( 'NONE', #188, 1000.000000000000000 ) ;
#174 = CC_DESIGN_APPROVAL ( #13, ( #75 ) ) ;
#175 = EDGE_CURVE ( 'NONE', #108, #29, #22, .T. ) ;
#176 = SHAPE_DEFINITION_REPRESENTATION ( #63, #150 ) ;
#177 = ORGANIZATION ( 'UNSPECIFIED', 'UNSPECIFIED', '' ) ;
#178 = EDGE_LOOP ( 'NONE', ( #156, #42, #36, #125 ) ) ;
#179 = FACE_OUTER_BOUND ( 'NONE', #92, .T. ) ;
#180 = CC_DESIGN_APPROVAL ( #59, ( #48 ) ) ;
#181 = DIRECTION ( 'NONE',  ( -1.000000000000000000, -1.387778780781445700E-016, 0.0000000000000000000 ) ) ;
#182 = PLANE ( 'NONE',  #136 ) ;
#183 = PLANE ( 'NONE',  #24 ) ;
#184 = EDGE_CURVE ( 'NONE', #15, #228, #65, .T. ) ;
#185 = AXIS2_PLACEMENT_3D ( 'NONE', #140, #102, #30 ) ;
#186 = APPROVAL_ROLE ( '' ) ;
#187 = CLOSED_SHELL ( 'NONE', ( #110, #148, #57, #95, #16, #20 ) ) ;
#188 = DIRECTION ( 'NONE',  ( -0.0000000000000000000, -0.0000000000000000000, -1.000000000000000000 ) ) ;
#189 = DATE_AND_TIME ( #99, #131 ) ;
#190 = DIRECTION ( 'NONE',  ( 1.000000000000000000, 0.0000000000000000000, -0.0000000000000000000 ) ) ;
#191 = VERTEX_POINT ( 'NONE', #18 ) ;
#192 = VERTEX_POINT ( 'NONE', #60 ) ;
#193 = CARTESIAN_POINT ( 'NONE',  ( 24.99999999999999600, -24.99999999999999600, -4.750000000000000000 ) ) ;
#194 = MANIFOLD_SOLID_BREP ( 'Boss-Extrude1', #187 ) ;
#195 = CARTESIAN_POINT ( 'NONE',  ( 24.99999999999999600, 25.00000000000000400, 4.750000000000000000 ) ) ;
#196 = EDGE_CURVE ( 'NONE', #74, #108, #103, .T. ) ;
#197 = PERSON_AND_ORGANIZATION ( #132, #177 ) ;
#198 = VECTOR ( 'NONE', #96, 1000.000000000000000 ) ;
#199 = EDGE_LOOP ( 'NONE', ( #115, #119, #227, #222 ) ) ;
#200 = ORIENTED_EDGE ( 'NONE', *, *, #90, .T. ) ;
#201 = EDGE_CURVE ( 'NONE', #192, #191, #38, .T. ) ;
#202 = DIRECTION ( 'NONE',  ( -0.0000000000000000000, -0.0000000000000000000, -1.000000000000000000 ) ) ;
#203 = COORDINATED_UNIVERSAL_TIME_OFFSET ( 5, 0, .BEHIND. ) ;
#204 = DIRECTION ( 'NONE',  ( -0.0000000000000000000, -1.000000000000000000, -0.0000000000000000000 ) ) ;
#205 = CARTESIAN_POINT ( 'NONE',  ( 24.99999999999999600, -24.99999999999999600, -4.750000000000000000 ) ) ;
#206 = CARTESIAN_POINT ( 'NONE',  ( 24.99999999999999600, -24.99999999999999600, -4.750000000000000000 ) ) ;
#207 = COORDINATED_UNIVERSAL_TIME_OFFSET ( 5, 0, .BEHIND. ) ;
#208 = VECTOR ( 'NONE', #41, 1000.000000000000000 ) ;
#209 = PERSON_AND_ORGANIZATION_ROLE ( 'creator' ) ;
#210 = CC_DESIGN_PERSON_AND_ORGANIZATION_ASSIGNMENT ( #112, #152, ( #75 ) ) ;
#211 = DATE_AND_TIME ( #40, #73 ) ;
#212 = APPROVAL_STATUS ( 'not_yet_approved' ) ;
#213 = EDGE_CURVE ( 'NONE', #191, #108, #12, .T. ) ;
#214 = ORIENTED_EDGE ( 'NONE', *, *, #160, .T. ) ;
#215 = CARTESIAN_POINT ( 'NONE',  ( 24.99999999999999600, -24.99999999999999600, 4.750000000000000000 ) ) ;
#216 = DATE_AND_TIME ( #56, #21 ) ;
#217 = LINE ( 'NONE', #116, #237 ) ;
#218 = CC_DESIGN_DATE_AND_TIME_ASSIGNMENT ( #7, #122, ( #75 ) ) ;
#219 = DESIGN_CONTEXT ( 'detailed design', #138, 'design' ) ;
#220 = EDGE_LOOP ( 'NONE', ( #19, #155, #6, #200 ) ) ;
#221 = LINE ( 'NONE', #195, #52 ) ;
#222 = ORIENTED_EDGE ( 'NONE', *, *, #196, .T. ) ;
#223 = DIRECTION ( 'NONE',  ( 1.000000000000000000, 0.0000000000000000000, 0.0000000000000000000 ) ) ;
#224 = CALENDAR_DATE ( 2017, 30, 10 ) ;
#225 = LINE ( 'NONE', #157, #173 ) ;
#226 = VERTEX_POINT ( 'NONE', #149 ) ;
#227 = ORIENTED_EDGE ( 'NONE', *, *, #232, .F. ) ;
#228 = VERTEX_POINT ( 'NONE', #61 ) ;
#229 =( NAMED_UNIT ( * ) SI_UNIT ( $, .STERADIAN. ) SOLID_ANGLE_UNIT ( ) );
#230 = LINE ( 'NONE', #206, #208 ) ;
#231 = DIRECTION ( 'NONE',  ( 1.000000000000000000, 0.0000000000000000000, 0.0000000000000000000 ) ) ;
#232 = EDGE_CURVE ( 'NONE', #74, #15, #72, .T. ) ;
#233 = DIRECTION ( 'NONE',  ( 0.0000000000000000000, 0.0000000000000000000, 1.000000000000000000 ) ) ;
#234 = PERSON_AND_ORGANIZATION_ROLE ( 'design_supplier' ) ;
#235 = PRODUCT_DEFINITION ( 'UNKNOWN', '', #48, #219 ) ;
#236 = APPROVAL ( #171, 'UNSPECIFIED' ) ;
#237 = VECTOR ( 'NONE', #44, 1000.000000000000000 ) ;
ENDSEC;
END-ISO-10303-21;
