ISO-10303-21;
HEADER;
FILE_DESCRIPTION (( 'STEP AP214' ),
    '1' );
FILE_NAME ('3454-E0W.STEP',
    '2009-12-21T16:59:39',
    ( ' ' ),
    ( ' ' ),
    'SwSTEP 2.0',
    'SolidWorks 2009',
    '' );
FILE_SCHEMA (( 'AUTOMOTIVE_DESIGN' ));
ENDSEC;

DATA;
#1 = VERTEX_POINT ( 'NONE', #100 ) ;
#2 = ORIENTED_EDGE ( 'NONE', *, *, #4, .F. ) ;
#3 = VERTEX_POINT ( 'NONE', #58 ) ;
#4 = EDGE_CURVE ( 'NONE', #3, #1, #109, .T. ) ;
#5 = EDGE_CURVE ( 'NONE', #34, #7, #70, .T. ) ;
#6 = ORIENTED_EDGE ( 'NONE', *, *, #5, .F. ) ;
#7 = VERTEX_POINT ( 'NONE', #132 ) ;
#8 = VERTEX_POINT ( 'NONE', #97 ) ;
#9 = ORIENTED_EDGE ( 'NONE', *, *, #10, .T. ) ;
#10 = EDGE_CURVE ( 'NONE', #125, #1, #76, .T. ) ;
#11 = ORIENTED_EDGE ( 'NONE', *, *, #12, .F. ) ;
#12 = EDGE_CURVE ( 'NONE', #125, #8, #98, .T. ) ;
#13 = EDGE_CURVE ( 'NONE', #96, #40, #81, .T. ) ;
#14 = ORIENTED_EDGE ( 'NONE', *, *, #5, .T. ) ;
#15 = ORIENTED_EDGE ( 'NONE', *, *, #16, .T. ) ;
#16 = EDGE_CURVE ( 'NONE', #40, #34, #52, .T. ) ;
#17 = ORIENTED_EDGE ( 'NONE', *, *, #13, .T. ) ;
#18 = ORIENTED_EDGE ( 'NONE', *, *, #120, .T. ) ;
#19 = ADVANCED_FACE ( 'NONE', ( #53 ), #123, .F. ) ;
#20 = ORIENTED_EDGE ( 'NONE', *, *, #12, .T. ) ;
#21 = ORIENTED_EDGE ( 'NONE', *, *, #60, .F. ) ;
#22 = ORIENTED_EDGE ( 'NONE', *, *, #29, .T. ) ;
#23 = ORIENTED_EDGE ( 'NONE', *, *, #82, .F. ) ;
#24 = CLOSED_SHELL ( 'NONE', ( #121, #83, #49, #27, #43, #19 ) ) ;
#25 = ORIENTED_EDGE ( 'NONE', *, *, #48, .F. ) ;
#26 = EDGE_LOOP ( 'NONE', ( #28, #15, #14, #44 ) ) ;
#27 = ADVANCED_FACE ( 'NONE', ( #105 ), #167, .T. ) ;
#28 = ORIENTED_EDGE ( 'NONE', *, *, #39, .F. ) ;
#29 = EDGE_CURVE ( 'NONE', #54, #125, #165, .T. ) ;
#30 = ORIENTED_EDGE ( 'NONE', *, *, #13, .F. ) ;
#31 = EDGE_LOOP ( 'NONE', ( #21, #22, #20, #33, #35, #30 ) ) ;
#32 = ORIENTED_EDGE ( 'NONE', *, *, #10, .F. ) ;
#33 = ORIENTED_EDGE ( 'NONE', *, *, #48, .T. ) ;
#34 = VERTEX_POINT ( 'NONE', #153 ) ;
#35 = ORIENTED_EDGE ( 'NONE', *, *, #16, .F. ) ;
#36 = ORIENTED_EDGE ( 'NONE', *, *, #4, .T. ) ;
#37 = EDGE_LOOP ( 'NONE', ( #32, #45, #23, #36 ) ) ;
#38 = ORIENTED_EDGE ( 'NONE', *, *, #39, .T. ) ;
#39 = EDGE_CURVE ( 'NONE', #40, #41, #137, .T. ) ;
#40 = VERTEX_POINT ( 'NONE', #148 ) ;
#41 = VERTEX_POINT ( 'NONE', #147 ) ;
#42 = EDGE_LOOP ( 'NONE', ( #18, #17, #38, #46 ) ) ;
#43 = ADVANCED_FACE ( 'NONE', ( #146 ), #178, .T. ) ;
#44 = ORIENTED_EDGE ( 'NONE', *, *, #47, .T. ) ;
#45 = ORIENTED_EDGE ( 'NONE', *, *, #29, .F. ) ;
#46 = ORIENTED_EDGE ( 'NONE', *, *, #47, .F. ) ;
#47 = EDGE_CURVE ( 'NONE', #7, #41, #203, .T. ) ;
#48 = EDGE_CURVE ( 'NONE', #8, #34, #201, .T. ) ;
#49 = ADVANCED_FACE ( 'NONE', ( #186 ), #208, .T. ) ;
#50 = DIRECTION ( 'NONE',  ( -0.0000000000000000000, -0.0000000000000000000, 1.000000000000000000 ) ) ;
#51 = AXIS2_PLACEMENT_3D ( 'NONE', #80, #50, #119 ) ;
#52 = CIRCLE ( 'NONE', #51, 12.69999999999999900 ) ;
#53 = FACE_OUTER_BOUND ( 'NONE', #37, .T. ) ;
#54 = VERTEX_POINT ( 'NONE', #206 ) ;
#55 = DIRECTION ( 'NONE',  ( 1.000000000000000000, 0.0000000000000000000, 0.0000000000000000000 ) ) ;
#56 = DIRECTION ( 'NONE',  ( -0.0000000000000000000, -0.0000000000000000000, 1.000000000000000000 ) ) ;
#57 = AXIS2_PLACEMENT_3D ( 'NONE', #99, #56, #55 ) ;
#58 = CARTESIAN_POINT ( 'NONE',  ( 0.0000000000000000000, 12.70000000000002800, -1.616590660413742100 ) ) ;
#59 =( NAMED_UNIT ( * ) PLANE_ANGLE_UNIT ( ) SI_UNIT ( $, .RADIAN. ) );
#60 = EDGE_CURVE ( 'NONE', #54, #96, #169, .T. ) ;
#61 = DIRECTION ( 'NONE',  ( 0.0000000000000000000, 0.0000000000000000000, -1.000000000000000000 ) ) ;
#62 = DIRECTION ( 'NONE',  ( 1.000000000000000000, -0.0000000000000000000, 0.0000000000000000000 ) ) ;
#63 = EDGE_CURVE ( 'NONE', #8, #3, #223, .T. ) ;
#64 = SURFACE_SIDE_STYLE ('',( #65 ) ) ;
#65 = SURFACE_STYLE_FILL_AREA ( #66 ) ;
#66 = FILL_AREA_STYLE ('',( #117 ) ) ;
#67 = DIRECTION ( 'NONE',  ( -0.0000000000000000000, -0.0000000000000000000, 1.000000000000000000 ) ) ;
#68 = CARTESIAN_POINT ( 'NONE',  ( 0.0000000000000000000, 0.0000000000000000000, 0.3860214958731847900 ) ) ;
#69 = AXIS2_PLACEMENT_3D ( 'NONE', #68, #67, #133 ) ;
#70 = CIRCLE ( 'NONE', #69, 12.69999999999999900 ) ;
#71 = DIRECTION ( 'NONE',  ( 1.000000000000000000, 0.0000000000000000000, 0.0000000000000000000 ) ) ;
#72 = DIRECTION ( 'NONE',  ( -0.0000000000000000000, -0.0000000000000000000, 1.000000000000000000 ) ) ;
#73 = CARTESIAN_POINT ( 'NONE',  ( 0.0000000000000000000, 0.0000000000000000000, -1.616590660413759400 ) ) ;
#74 = CARTESIAN_POINT ( 'NONE',  ( 0.0000000000000000000, 0.0000000000000000000, -183.3634093395862100 ) ) ;
#75 = AXIS2_PLACEMENT_3D ( 'NONE', #74, #93, #92 ) ;
#76 = CIRCLE ( 'NONE', #75, 182.1900000000000000 ) ;
#77 = MANIFOLD_SOLID_BREP ( 'NONE', #24 ) ;
#78 = ORIENTED_EDGE ( 'NONE', *, *, #120, .F. ) ;
#79 = ORIENTED_EDGE ( 'NONE', *, *, #82, .T. ) ;
#80 = CARTESIAN_POINT ( 'NONE',  ( 0.0000000000000000000, 0.0000000000000000000, 0.3860214958731847900 ) ) ;
#81 = CIRCLE ( 'NONE', #57, 12.69999999999999900 ) ;
#82 = EDGE_CURVE ( 'NONE', #3, #54, #233, .T. ) ;
#83 = ADVANCED_FACE ( 'NONE', ( #311 ), #279, .T. ) ;
#84 = MECHANICAL_DESIGN_GEOMETRIC_PRESENTATION_REPRESENTATION (  '', ( #86 ), #168 ) ;
#85 = PRESENTATION_LAYER_ASSIGNMENT (  '', '', ( #86 ) ) ;
#86 = STYLED_ITEM ( 'NONE', ( #87 ), #27 ) ;
#87 = PRESENTATION_STYLE_ASSIGNMENT (( #88 ) ) ;
#88 = SURFACE_STYLE_USAGE ( .BOTH. , #89 ) ;
#89 = SURFACE_SIDE_STYLE ('',( #90 ) ) ;
#90 = SURFACE_STYLE_FILL_AREA ( #101 ) ;
#91 = AXIS2_PLACEMENT_3D ( 'NONE', #73, #72, #71 ) ;
#92 = DIRECTION ( 'NONE',  ( -1.224606353822377300E-016, -1.000000000000000000, 0.0000000000000000000 ) ) ;
#93 = DIRECTION ( 'NONE',  ( -1.000000000000000000, 1.224606353822377300E-016, 0.0000000000000000000 ) ) ;
#94 =( LENGTH_UNIT ( ) NAMED_UNIT ( * ) SI_UNIT ( .MILLI., .METRE. ) );
#95 = ORIENTED_EDGE ( 'NONE', *, *, #60, .T. ) ;
#96 = VERTEX_POINT ( 'NONE', #280 ) ;
#97 = CARTESIAN_POINT ( 'NONE',  ( 12.70000000000000100, 0.0000000000000000000, -1.616590660413759400 ) ) ;
#98 = CIRCLE ( 'NONE', #91, 12.70000000000000100 ) ;
#99 = CARTESIAN_POINT ( 'NONE',  ( 0.0000000000000000000, 0.0000000000000000000, 0.3860214958731847900 ) ) ;
#100 = CARTESIAN_POINT ( 'NONE',  ( 0.0000000000000000000, 1.115555158014494500E-014, -1.173409339586234400 ) ) ;
#101 = FILL_AREA_STYLE ('',( #106 ) ) ;
#102 = COLOUR_RGB ( '',0.9568627450980391500, 0.9490196078431372100, 0.9607843137254902200 ) ;
#103 = DIRECTION ( 'NONE',  ( 0.0000000000000000000, 1.000000000000000000, 0.0000000000000000000 ) ) ;
#104 = DIRECTION ( 'NONE',  ( -1.000000000000000000, 0.0000000000000000000, 0.0000000000000000000 ) ) ;
#105 = FACE_OUTER_BOUND ( 'NONE', #26, .T. ) ;
#106 = FILL_AREA_STYLE_COLOUR ( '', #102 ) ;
#107 = EDGE_LOOP ( 'NONE', ( #126, #79, #95, #78, #6, #25 ) ) ;
#108 = AXIS2_PLACEMENT_3D ( 'NONE', #129, #62, #61 ) ;
#109 = CIRCLE ( 'NONE', #108, 182.1900000000000300 ) ;
#110 = MECHANICAL_DESIGN_GEOMETRIC_PRESENTATION_REPRESENTATION (  '', ( #112 ), #124 ) ;
#111 = PRESENTATION_LAYER_ASSIGNMENT (  '', '', ( #112 ) ) ;
#112 = STYLED_ITEM ( 'NONE', ( #113 ), #19 ) ;
#113 = PRESENTATION_STYLE_ASSIGNMENT (( #114 ) ) ;
#114 = SURFACE_STYLE_USAGE ( .BOTH. , #64 ) ;
#115 = UNCERTAINTY_MEASURE_WITH_UNIT (LENGTH_MEASURE( 1.000000000000000100E-005 ), #127, 'distance_accuracy_value', 'NONE');
#116 =( NAMED_UNIT ( * ) SI_UNIT ( $, .STERADIAN. ) SOLID_ANGLE_UNIT ( ) );
#117 = FILL_AREA_STYLE_COLOUR ( '', #118 ) ;
#118 = COLOUR_RGB ( '',0.9568627450980391500, 0.9490196078431372100, 0.9607843137254902200 ) ;
#119 = DIRECTION ( 'NONE',  ( 1.000000000000000000, 0.0000000000000000000, 0.0000000000000000000 ) ) ;
#120 = EDGE_CURVE ( 'NONE', #7, #96, #263, .T. ) ;
#121 = ADVANCED_FACE ( 'NONE', ( #258 ), #248, .F. ) ;
#122 = CARTESIAN_POINT ( 'NONE',  ( 0.0000000000000000000, 0.0000000000000000000, -183.3634093395862100 ) ) ;
#123 = SPHERICAL_SURFACE ( 'NONE', #128, 182.1900000000000000 ) ;
#124 =( GEOMETRIC_REPRESENTATION_CONTEXT ( 3 ) GLOBAL_UNCERTAINTY_ASSIGNED_CONTEXT ( ( #115 ) ) GLOBAL_UNIT_ASSIGNED_CONTEXT ( ( #127, #59, #116 ) ) REPRESENTATION_CONTEXT ( 'NONE', 'WORKASPACE' ) );
#125 = VERTEX_POINT ( 'NONE', #240 ) ;
#126 = ORIENTED_EDGE ( 'NONE', *, *, #63, .T. ) ;
#127 =( LENGTH_UNIT ( ) NAMED_UNIT ( * ) SI_UNIT ( .MILLI., .METRE. ) );
#128 = AXIS2_PLACEMENT_3D ( 'NONE', #122, #104, #103 ) ;
#129 = CARTESIAN_POINT ( 'NONE',  ( 0.0000000000000000000, 0.0000000000000000000, -183.3634093395862100 ) ) ;
#130 =( NAMED_UNIT ( * ) SI_UNIT ( $, .STERADIAN. ) SOLID_ANGLE_UNIT ( ) );
#131 =( NAMED_UNIT ( * ) PLANE_ANGLE_UNIT ( ) SI_UNIT ( $, .RADIAN. ) );
#132 = CARTESIAN_POINT ( 'NONE',  ( 0.0000000000000000000, 12.70000000000001000, 0.3860214958731804600 ) ) ;
#133 = DIRECTION ( 'NONE',  ( 1.000000000000000000, 0.0000000000000000000, 0.0000000000000000000 ) ) ;
#134 = ORIENTED_EDGE ( 'NONE', *, *, #63, .F. ) ;
#135 = EDGE_LOOP ( 'NONE', ( #11, #9, #2, #134 ) ) ;
#136 = CARTESIAN_POINT ( 'NONE',  ( 0.0000000000000000000, 0.0000000000000000000, -64.53340933958622800 ) ) ;
#137 = CIRCLE ( 'NONE', #150, 66.15000000000000600 ) ;
#138 = CARTESIAN_POINT ( 'NONE',  ( 0.0000000000000000000, 0.0000000000000000000, -1.616590660413759400 ) ) ;
#139 = DIRECTION ( 'NONE',  ( 0.0000000000000000000, 1.000000000000000000, 0.0000000000000000000 ) ) ;
#140 = DIRECTION ( 'NONE',  ( -1.000000000000000000, 0.0000000000000000000, 0.0000000000000000000 ) ) ;
#141 = CARTESIAN_POINT ( 'NONE',  ( 0.0000000000000000000, 0.0000000000000000000, -64.53340933958622800 ) ) ;
#142 = SURFACE_STYLE_FILL_AREA ( #143 ) ;
#143 = FILL_AREA_STYLE ('',( #144 ) ) ;
#144 = FILL_AREA_STYLE_COLOUR ( '', #145 ) ;
#145 = COLOUR_RGB ( '',0.9568627450980391500, 0.9490196078431372100, 0.9607843137254902200 ) ;
#146 = FACE_OUTER_BOUND ( 'NONE', #31, .T. ) ;
#147 = CARTESIAN_POINT ( 'NONE',  ( 0.0000000000000000000, 4.050385515267512900E-015, 1.616590660413766300 ) ) ;
#148 = CARTESIAN_POINT ( 'NONE',  ( -1.555250069354420500E-015, -12.70000000000001000, 0.3860214958731804600 ) ) ;
#149 = DIRECTION ( 'NONE',  ( -1.224606353822377300E-016, -1.000000000000000000, 0.0000000000000000000 ) ) ;
#150 = AXIS2_PLACEMENT_3D ( 'NONE', #136, #152, #149 ) ;
#151 = AXIS2_PLACEMENT_3D ( 'NONE', #141, #140, #139 ) ;
#152 = DIRECTION ( 'NONE',  ( -1.000000000000000000, 1.224606353822377300E-016, 0.0000000000000000000 ) ) ;
#153 = CARTESIAN_POINT ( 'NONE',  ( 12.69999999999999900, 0.0000000000000000000, 0.3860214958731847900 ) ) ;
#154 =( LENGTH_UNIT ( ) NAMED_UNIT ( * ) SI_UNIT ( .MILLI., .METRE. ) );
#155 = MECHANICAL_DESIGN_GEOMETRIC_PRESENTATION_REPRESENTATION (  '', ( #158 ), #211 ) ;
#156 =( NAMED_UNIT ( * ) PLANE_ANGLE_UNIT ( ) SI_UNIT ( $, .RADIAN. ) );
#157 = PRESENTATION_LAYER_ASSIGNMENT (  '', '', ( #158 ) ) ;
#158 = STYLED_ITEM ( 'NONE', ( #159 ), #43 ) ;
#159 = PRESENTATION_STYLE_ASSIGNMENT (( #160 ) ) ;
#160 = SURFACE_STYLE_USAGE ( .BOTH. , #161 ) ;
#161 = SURFACE_SIDE_STYLE ('',( #142 ) ) ;
#162 = DIRECTION ( 'NONE',  ( 1.000000000000000000, 0.0000000000000000000, 0.0000000000000000000 ) ) ;
#163 = DIRECTION ( 'NONE',  ( -0.0000000000000000000, -0.0000000000000000000, 1.000000000000000000 ) ) ;
#164 = AXIS2_PLACEMENT_3D ( 'NONE', #138, #163, #162 ) ;
#165 = CIRCLE ( 'NONE', #164, 12.70000000000000100 ) ;
#166 = UNCERTAINTY_MEASURE_WITH_UNIT (LENGTH_MEASURE( 1.000000000000000100E-005 ), #94, 'distance_accuracy_value', 'NONE');
#167 = SPHERICAL_SURFACE ( 'NONE', #151, 66.15000000000000600 ) ;
#168 =( GEOMETRIC_REPRESENTATION_CONTEXT ( 3 ) GLOBAL_UNCERTAINTY_ASSIGNED_CONTEXT ( ( #166 ) ) GLOBAL_UNIT_ASSIGNED_CONTEXT ( ( #94, #131, #130 ) ) REPRESENTATION_CONTEXT ( 'NONE', 'WORKASPACE' ) );
#169 = LINE ( 'NONE', #197, #196 ) ;
#170 = DIRECTION ( 'NONE',  ( 0.0000000000000000000, 1.000000000000000000, 0.0000000000000000000 ) ) ;
#171 = DIRECTION ( 'NONE',  ( -1.000000000000000000, 0.0000000000000000000, 0.0000000000000000000 ) ) ;
#172 = SURFACE_STYLE_FILL_AREA ( #173 ) ;
#173 = FILL_AREA_STYLE ('',( #202 ) ) ;
#174 = COLOUR_RGB ( '',0.9568627450980391500, 0.9490196078431372100, 0.9607843137254902200 ) ;
#175 = DIRECTION ( 'NONE',  ( -0.0000000000000000000, -0.0000000000000000000, 1.000000000000000000 ) ) ;
#176 = VECTOR ( 'NONE', #175, 1000.000000000000000 ) ;
#177 = CARTESIAN_POINT ( 'NONE',  ( 12.69999999999999900, 0.0000000000000000000, 9.126694415254821300 ) ) ;
#178 = CYLINDRICAL_SURFACE ( 'NONE', #192, 12.69999999999999900 ) ;
#179 =( LENGTH_UNIT ( ) NAMED_UNIT ( * ) SI_UNIT ( .MILLI., .METRE. ) );
#180 = MECHANICAL_DESIGN_GEOMETRIC_PRESENTATION_REPRESENTATION (  '', ( #187 ), #209 ) ;
#181 = PRESENTATION_LAYER_ASSIGNMENT (  '', '', ( #187 ) ) ;
#182 = DIRECTION ( 'NONE',  ( 0.0000000000000000000, 0.0000000000000000000, -1.000000000000000000 ) ) ;
#183 = DIRECTION ( 'NONE',  ( 1.000000000000000000, 0.0000000000000000000, 0.0000000000000000000 ) ) ;
#184 = CARTESIAN_POINT ( 'NONE',  ( 0.0000000000000000000, 0.0000000000000000000, -64.53340933958622800 ) ) ;
#185 = AXIS2_PLACEMENT_3D ( 'NONE', #184, #183, #182 ) ;
#186 = FACE_OUTER_BOUND ( 'NONE', #42, .T. ) ;
#187 = STYLED_ITEM ( 'NONE', ( #188 ), #49 ) ;
#188 = PRESENTATION_STYLE_ASSIGNMENT (( #189 ) ) ;
#189 = SURFACE_STYLE_USAGE ( .BOTH. , #190 ) ;
#190 = SURFACE_SIDE_STYLE ('',( #172 ) ) ;
#191 = CARTESIAN_POINT ( 'NONE',  ( 0.0000000000000000000, 0.0000000000000000000, 9.126694415254821300 ) ) ;
#192 = AXIS2_PLACEMENT_3D ( 'NONE', #191, #194, #193 ) ;
#193 = DIRECTION ( 'NONE',  ( 1.000000000000000000, 0.0000000000000000000, 0.0000000000000000000 ) ) ;
#194 = DIRECTION ( 'NONE',  ( -0.0000000000000000000, -0.0000000000000000000, 1.000000000000000000 ) ) ;
#195 = DIRECTION ( 'NONE',  ( -0.0000000000000000000, -0.0000000000000000000, 1.000000000000000000 ) ) ;
#196 = VECTOR ( 'NONE', #195, 1000.000000000000000 ) ;
#197 = CARTESIAN_POINT ( 'NONE',  ( -12.69999999999999900, 1.555250069354419100E-015, 9.126694415254821300 ) ) ;
#198 =( NAMED_UNIT ( * ) SI_UNIT ( $, .STERADIAN. ) SOLID_ANGLE_UNIT ( ) );
#199 =( NAMED_UNIT ( * ) PLANE_ANGLE_UNIT ( ) SI_UNIT ( $, .RADIAN. ) );
#200 = UNCERTAINTY_MEASURE_WITH_UNIT (LENGTH_MEASURE( 1.000000000000000100E-005 ), #179, 'distance_accuracy_value', 'NONE');
#201 = LINE ( 'NONE', #177, #176 ) ;
#202 = FILL_AREA_STYLE_COLOUR ( '', #174 ) ;
#203 = CIRCLE ( 'NONE', #185, 66.14999999999999100 ) ;
#204 = CARTESIAN_POINT ( 'NONE',  ( 0.0000000000000000000, 0.0000000000000000000, -64.53340933958622800 ) ) ;
#205 = AXIS2_PLACEMENT_3D ( 'NONE', #204, #171, #170 ) ;
#206 = CARTESIAN_POINT ( 'NONE',  ( -12.70000000000000300, 1.555250069354419500E-015, -1.616590660413759400 ) ) ;
#207 = UNCERTAINTY_MEASURE_WITH_UNIT (LENGTH_MEASURE( 1.000000000000000100E-005 ), #154, 'distance_accuracy_value', 'NONE');
#208 = SPHERICAL_SURFACE ( 'NONE', #205, 66.15000000000000600 ) ;
#209 =( GEOMETRIC_REPRESENTATION_CONTEXT ( 3 ) GLOBAL_UNCERTAINTY_ASSIGNED_CONTEXT ( ( #200 ) ) GLOBAL_UNIT_ASSIGNED_CONTEXT ( ( #179, #199, #198 ) ) REPRESENTATION_CONTEXT ( 'NONE', 'WORKASPACE' ) );
#210 =( NAMED_UNIT ( * ) SI_UNIT ( $, .STERADIAN. ) SOLID_ANGLE_UNIT ( ) );
#211 =( GEOMETRIC_REPRESENTATION_CONTEXT ( 3 ) GLOBAL_UNCERTAINTY_ASSIGNED_CONTEXT ( ( #207 ) ) GLOBAL_UNIT_ASSIGNED_CONTEXT ( ( #154, #156, #210 ) ) REPRESENTATION_CONTEXT ( 'NONE', 'WORKASPACE' ) );
#212 = SURFACE_STYLE_USAGE ( .BOTH. , #216 ) ;
#213 = COLOUR_RGB ( '',0.7960784313725489700, 0.8235294117647058400, 0.9372549019607843100 ) ;
#214 =( LENGTH_UNIT ( ) NAMED_UNIT ( * ) SI_UNIT ( .MILLI., .METRE. ) );
#215 = FILL_AREA_STYLE ('',( #219 ) ) ;
#216 = SURFACE_SIDE_STYLE ('',( #218 ) ) ;
#217 = CARTESIAN_POINT ( 'NONE',  ( 0.0000000000000000000, 0.0000000000000000000, -1.616590660413759400 ) ) ;
#218 = SURFACE_STYLE_FILL_AREA ( #215 ) ;
#219 = FILL_AREA_STYLE_COLOUR ( '', #213 ) ;
#220 = UNCERTAINTY_MEASURE_WITH_UNIT (LENGTH_MEASURE( 1.000000000000000100E-005 ), #214, 'distance_accuracy_value', 'NONE');
#221 =( NAMED_UNIT ( * ) SI_UNIT ( $, .STERADIAN. ) SOLID_ANGLE_UNIT ( ) );
#222 = DIRECTION ( 'NONE',  ( 1.000000000000000000, 0.0000000000000000000, 0.0000000000000000000 ) ) ;
#223 = CIRCLE ( 'NONE', #226, 12.70000000000000100 ) ;
#224 =( NAMED_UNIT ( * ) PLANE_ANGLE_UNIT ( ) SI_UNIT ( $, .RADIAN. ) );
#225 = DIRECTION ( 'NONE',  ( -0.0000000000000000000, -0.0000000000000000000, 1.000000000000000000 ) ) ;
#226 = AXIS2_PLACEMENT_3D ( 'NONE', #217, #225, #222 ) ;
#227 = STYLED_ITEM ( 'NONE', ( #230 ), #77 ) ;
#228 = MECHANICAL_DESIGN_GEOMETRIC_PRESENTATION_REPRESENTATION (  '', ( #227 ), #231 ) ;
#229 = PRESENTATION_LAYER_ASSIGNMENT (  '', '', ( #227 ) ) ;
#230 = PRESENTATION_STYLE_ASSIGNMENT (( #212 ) ) ;
#231 =( GEOMETRIC_REPRESENTATION_CONTEXT ( 3 ) GLOBAL_UNCERTAINTY_ASSIGNED_CONTEXT ( ( #220 ) ) GLOBAL_UNIT_ASSIGNED_CONTEXT ( ( #214, #224, #221 ) ) REPRESENTATION_CONTEXT ( 'NONE', 'WORKASPACE' ) );
#232 = AXIS2_PLACEMENT_3D ( 'NONE', #236, #235, #234 ) ;
#233 = CIRCLE ( 'NONE', #232, 12.70000000000000100 ) ;
#234 = DIRECTION ( 'NONE',  ( 1.000000000000000000, 0.0000000000000000000, 0.0000000000000000000 ) ) ;
#235 = DIRECTION ( 'NONE',  ( -0.0000000000000000000, -0.0000000000000000000, 1.000000000000000000 ) ) ;
#236 = CARTESIAN_POINT ( 'NONE',  ( 0.0000000000000000000, 0.0000000000000000000, -1.616590660413759400 ) ) ;
#237 = SURFACE_STYLE_FILL_AREA ( #272 ) ;
#238 =( LENGTH_UNIT ( ) NAMED_UNIT ( * ) SI_UNIT ( .MILLI., .METRE. ) );
#239 = CARTESIAN_POINT ( 'NONE',  ( 0.0000000000000000000, 0.0000000000000000000, 0.0000000000000000000 ) ) ;
#240 = CARTESIAN_POINT ( 'NONE',  ( -1.555250069354422800E-015, -12.70000000000002800, -1.616590660413742100 ) ) ;
#241 = DIRECTION ( 'NONE',  ( 0.0000000000000000000, 1.000000000000000000, 0.0000000000000000000 ) ) ;
#242 = DIRECTION ( 'NONE',  ( -1.000000000000000000, 0.0000000000000000000, 0.0000000000000000000 ) ) ;
#243 = AXIS2_PLACEMENT_3D ( 'NONE', #247, #242, #241 ) ;
#244 = UNCERTAINTY_MEASURE_WITH_UNIT (LENGTH_MEASURE( 1.000000000000000100E-005 ), #238, 'distance_accuracy_value', 'NONE');
#245 =( NAMED_UNIT ( * ) SI_UNIT ( $, .STERADIAN. ) SOLID_ANGLE_UNIT ( ) );
#246 =( NAMED_UNIT ( * ) PLANE_ANGLE_UNIT ( ) SI_UNIT ( $, .RADIAN. ) );
#247 = CARTESIAN_POINT ( 'NONE',  ( 0.0000000000000000000, 0.0000000000000000000, -183.3634093395862100 ) ) ;
#248 = SPHERICAL_SURFACE ( 'NONE', #243, 182.1900000000000000 ) ;
#249 =( GEOMETRIC_REPRESENTATION_CONTEXT ( 3 ) GLOBAL_UNCERTAINTY_ASSIGNED_CONTEXT ( ( #250 ) ) GLOBAL_UNIT_ASSIGNED_CONTEXT ( ( #301, #300, #299 ) ) REPRESENTATION_CONTEXT ( 'NONE', 'WORKASPACE' ) );
#250 = UNCERTAINTY_MEASURE_WITH_UNIT (LENGTH_MEASURE( 1.000000000000000100E-005 ), #301, 'distance_accuracy_value', 'NONE');
#251 =( NAMED_UNIT ( * ) SI_UNIT ( $, .STERADIAN. ) SOLID_ANGLE_UNIT ( ) );
#252 =( NAMED_UNIT ( * ) PLANE_ANGLE_UNIT ( ) SI_UNIT ( $, .RADIAN. ) );
#253 = SURFACE_STYLE_USAGE ( .BOTH. , #254 ) ;
#254 = SURFACE_SIDE_STYLE ('',( #255 ) ) ;
#255 = SURFACE_STYLE_FILL_AREA ( #256 ) ;
#256 = FILL_AREA_STYLE ('',( #264 ) ) ;
#257 = COLOUR_RGB ( '',0.9568627450980391500, 0.9490196078431372100, 0.9607843137254902200 ) ;
#258 = FACE_OUTER_BOUND ( 'NONE', #135, .T. ) ;
#259 = DIRECTION ( 'NONE',  ( 1.000000000000000000, 0.0000000000000000000, 0.0000000000000000000 ) ) ;
#260 = DIRECTION ( 'NONE',  ( -0.0000000000000000000, -0.0000000000000000000, 1.000000000000000000 ) ) ;
#261 = CARTESIAN_POINT ( 'NONE',  ( 0.0000000000000000000, 0.0000000000000000000, 0.3860214958731847900 ) ) ;
#262 = AXIS2_PLACEMENT_3D ( 'NONE', #261, #260, #259 ) ;
#263 = CIRCLE ( 'NONE', #262, 12.69999999999999900 ) ;
#264 = FILL_AREA_STYLE_COLOUR ( '', #257 ) ;
#265 = SURFACE_STYLE_USAGE ( .BOTH. , #266 ) ;
#266 = SURFACE_SIDE_STYLE ('',( #237 ) ) ;
#267 = DIRECTION ( 'NONE',  ( 1.000000000000000000, 0.0000000000000000000, 0.0000000000000000000 ) ) ;
#268 = DIRECTION ( 'NONE',  ( 0.0000000000000000000, 0.0000000000000000000, 1.000000000000000000 ) ) ;
#269 = AXIS2_PLACEMENT_3D ( 'NONE', #239, #268, #267 ) ;
#270 =( GEOMETRIC_REPRESENTATION_CONTEXT ( 3 ) GLOBAL_UNCERTAINTY_ASSIGNED_CONTEXT ( ( #295 ) ) GLOBAL_UNIT_ASSIGNED_CONTEXT ( ( #298, #297, #296 ) ) REPRESENTATION_CONTEXT ( 'NONE', 'WORKASPACE' ) );
#271 = COLOUR_RGB ( '',0.9568627450980391500, 0.9490196078431372100, 0.9607843137254902200 ) ;
#272 = FILL_AREA_STYLE ('',( #306 ) ) ;
#273 = STYLED_ITEM ( 'NONE', ( #274 ), #83 ) ;
#274 = PRESENTATION_STYLE_ASSIGNMENT (( #265 ) ) ;
#275 = DIRECTION ( 'NONE',  ( 1.000000000000000000, 0.0000000000000000000, 0.0000000000000000000 ) ) ;
#276 = DIRECTION ( 'NONE',  ( -0.0000000000000000000, -0.0000000000000000000, 1.000000000000000000 ) ) ;
#277 = CARTESIAN_POINT ( 'NONE',  ( 0.0000000000000000000, 0.0000000000000000000, 9.126694415254821300 ) ) ;
#278 = AXIS2_PLACEMENT_3D ( 'NONE', #277, #276, #275 ) ;
#279 = CYLINDRICAL_SURFACE ( 'NONE', #278, 12.69999999999999900 ) ;
#280 = CARTESIAN_POINT ( 'NONE',  ( -12.69999999999999900, 1.555250069354419100E-015, 0.3860214958731847900 ) ) ;
#281 = MECHANICAL_DESIGN_GEOMETRIC_PRESENTATION_REPRESENTATION (  '', ( #283 ), #270 ) ;
#282 = PRESENTATION_LAYER_ASSIGNMENT (  '', '', ( #283 ) ) ;
#283 = STYLED_ITEM ( 'NONE', ( #284 ), #293 ) ;
#284 = PRESENTATION_STYLE_ASSIGNMENT (( #285 ) ) ;
#285 = SURFACE_STYLE_USAGE ( .BOTH. , #286 ) ;
#286 = SURFACE_SIDE_STYLE ('',( #287 ) ) ;
#287 = SURFACE_STYLE_FILL_AREA ( #288 ) ;
#288 = FILL_AREA_STYLE ('',( #289 ) ) ;
#289 = FILL_AREA_STYLE_COLOUR ( '', #290 ) ;
#290 = COLOUR_RGB ( '',0.7960784313725489700, 0.8235294117647058400, 0.9372549019607843100 ) ;
#291 = APPLICATION_CONTEXT ( 'automotive_design' ) ;
#292 = SHAPE_DEFINITION_REPRESENTATION ( #313, #293 ) ;
#293 = ADVANCED_BREP_SHAPE_REPRESENTATION ( '3454-E0W', ( #77, #269 ), #294 ) ;
#294 =( GEOMETRIC_REPRESENTATION_CONTEXT ( 3 ) GLOBAL_UNCERTAINTY_ASSIGNED_CONTEXT ( ( #244 ) ) GLOBAL_UNIT_ASSIGNED_CONTEXT ( ( #238, #246, #245 ) ) REPRESENTATION_CONTEXT ( 'NONE', 'WORKASPACE' ) );
#295 = UNCERTAINTY_MEASURE_WITH_UNIT (LENGTH_MEASURE( 1.000000000000000100E-005 ), #298, 'distance_accuracy_value', 'NONE');
#296 =( NAMED_UNIT ( * ) SI_UNIT ( $, .STERADIAN. ) SOLID_ANGLE_UNIT ( ) );
#297 =( NAMED_UNIT ( * ) PLANE_ANGLE_UNIT ( ) SI_UNIT ( $, .RADIAN. ) );
#298 =( LENGTH_UNIT ( ) NAMED_UNIT ( * ) SI_UNIT ( .MILLI., .METRE. ) );
#299 =( NAMED_UNIT ( * ) SI_UNIT ( $, .STERADIAN. ) SOLID_ANGLE_UNIT ( ) );
#300 =( NAMED_UNIT ( * ) PLANE_ANGLE_UNIT ( ) SI_UNIT ( $, .RADIAN. ) );
#301 =( LENGTH_UNIT ( ) NAMED_UNIT ( * ) SI_UNIT ( .MILLI., .METRE. ) );
#302 = MECHANICAL_DESIGN_GEOMETRIC_PRESENTATION_REPRESENTATION (  '', ( #304 ), #249 ) ;
#303 = PRESENTATION_LAYER_ASSIGNMENT (  '', '', ( #304 ) ) ;
#304 = STYLED_ITEM ( 'NONE', ( #305 ), #121 ) ;
#305 = PRESENTATION_STYLE_ASSIGNMENT (( #253 ) ) ;
#306 = FILL_AREA_STYLE_COLOUR ( '', #271 ) ;
#307 =( LENGTH_UNIT ( ) NAMED_UNIT ( * ) SI_UNIT ( .MILLI., .METRE. ) );
#308 = MECHANICAL_DESIGN_GEOMETRIC_PRESENTATION_REPRESENTATION (  '', ( #273 ), #310 ) ;
#309 = PRESENTATION_LAYER_ASSIGNMENT (  '', '', ( #273 ) ) ;
#310 =( GEOMETRIC_REPRESENTATION_CONTEXT ( 3 ) GLOBAL_UNCERTAINTY_ASSIGNED_CONTEXT ( ( #312 ) ) GLOBAL_UNIT_ASSIGNED_CONTEXT ( ( #307, #252, #251 ) ) REPRESENTATION_CONTEXT ( 'NONE', 'WORKASPACE' ) );
#311 = FACE_OUTER_BOUND ( 'NONE', #107, .T. ) ;
#312 = UNCERTAINTY_MEASURE_WITH_UNIT (LENGTH_MEASURE( 1.000000000000000100E-005 ), #307, 'distance_accuracy_value', 'NONE');
#313 = PRODUCT_DEFINITION_SHAPE ( 'NONE', 'NONE',  #316 ) ;
#314 = PRODUCT_RELATED_PRODUCT_CATEGORY ( 'part', '', ( #320 ) ) ;
#315 = PRODUCT_DEFINITION_FORMATION_WITH_SPECIFIED_SOURCE ( 'ANY', '', #320, .NOT_KNOWN. ) ;
#316 = PRODUCT_DEFINITION ( 'UNKNOWN', '', #315, #317 ) ;
#317 = PRODUCT_DEFINITION_CONTEXT ( 'detailed design', #319, 'design' ) ;
#318 = APPLICATION_PROTOCOL_DEFINITION ( 'draft international standard', 'automotive_design', 1998, #319 ) ;
#319 = APPLICATION_CONTEXT ( 'automotive_design' ) ;
#320 = PRODUCT ( '3454-E0W', '3454-E0W', '', ( #321 ) ) ;
#321 = PRODUCT_CONTEXT ( 'NONE', #291, 'mechanical' ) ;
#322 = APPLICATION_PROTOCOL_DEFINITION ( 'draft international standard', 'automotive_design', 1998, #291 ) ;
ENDSEC;
END-ISO-10303-21;
