ISO-10303-21;
HEADER;
FILE_DESCRIPTION (( 'STEP AP203' ),
    '1' );
FILE_NAME ('Web Model 49628.STEP',
    '2017-01-31T15:23:14',
    ( '' ),
    ( '' ),
    'SwSTEP 2.0',
    'SolidWorks 2016',
    '' );
FILE_SCHEMA (( 'CONFIG_CONTROL_DESIGN' ));
ENDSEC;

DATA;
#1 = CALENDAR_DATE ( 2017, 31, 1 ) ;
#2 = ORIENTED_EDGE ( 'NONE', *, *, #103, .T. ) ;
#3 = FACE_OUTER_BOUND ( 'NONE', #78, .T. ) ;
#4 = CALENDAR_DATE ( 2017, 31, 1 ) ;
#5 = APPROVAL_PERSON_ORGANIZATION ( #223, #28, #193 ) ;
#6 = ORIENTED_EDGE ( 'NONE', *, *, #85, .T. ) ;
#7 = SECURITY_CLASSIFICATION ( '', '', #98 ) ;
#8 = CLOSED_SHELL ( 'NONE', ( #90, #17, #89, #237, #117, #126 ) ) ;
#9 = CC_DESIGN_DATE_AND_TIME_ASSIGNMENT ( #142, #39, ( #222 ) ) ;
#10 = APPLICATION_PROTOCOL_DEFINITION ( 'international standard', 'config_control_design', 1994, #27 ) ;
#11 = APPROVAL_STATUS ( 'not_yet_approved' ) ;
#12 = DIRECTION ( 'NONE',  ( 0.0000000000000000000, -0.0000000000000000000, -1.000000000000000000 ) ) ;
#13 = PERSON_AND_ORGANIZATION_ROLE ( 'design_owner' ) ;
#14 = LINE ( 'NONE', #44, #54 ) ;
#15 = CARTESIAN_POINT ( 'NONE',  ( 6.250000000000000000, -6.250000000000000000, 3.000000000000000000 ) ) ;
#16 = CARTESIAN_POINT ( 'NONE',  ( 6.250000000000000000, 6.250000000000000000, 3.000000000000000000 ) ) ;
#17 = ADVANCED_FACE ( 'NONE', ( #34 ), #181, .F. ) ;
#18 = EDGE_CURVE ( 'NONE', #99, #95, #220, .T. ) ;
#19 = LINE ( 'NONE', #72, #210 ) ;
#20 = FACE_OUTER_BOUND ( 'NONE', #81, .T. ) ;
#21 = CC_DESIGN_PERSON_AND_ORGANIZATION_ASSIGNMENT ( #172, #230, ( #194 ) ) ;
#22 = PRODUCT ( 'Web Model 49628', 'Web Model 49628', '', ( #196 ) ) ;
#23 = APPROVAL_DATE_TIME ( #148, #217 ) ;
#24 = PERSON_AND_ORGANIZATION ( #174, #186 ) ;
#25 = LINE ( 'NONE', #59, #66 ) ;
#26 = LINE ( 'NONE', #180, #30 ) ;
#27 = APPLICATION_CONTEXT ( 'configuration controlled 3d designs of mechanical parts and assemblies' ) ;
#28 = APPROVAL ( #175, 'UNSPECIFIED' ) ;
#29 = DIRECTION ( 'NONE',  ( 0.0000000000000000000, 1.000000000000000000, 0.0000000000000000000 ) ) ;
#30 = VECTOR ( 'NONE', #100, 1000.000000000000000 ) ;
#31 = COORDINATED_UNIVERSAL_TIME_OFFSET ( 5, 0, .BEHIND. ) ;
#32 = ORIENTED_EDGE ( 'NONE', *, *, #52, .T. ) ;
#33 = LOCAL_TIME ( 10, 23, 14.00000000000000000, #31 ) ;
#34 = FACE_OUTER_BOUND ( 'NONE', #158, .T. ) ;
#35 = LOCAL_TIME ( 10, 23, 14.00000000000000000, #41 ) ;
#36 = CC_DESIGN_APPROVAL ( #28, ( #7 ) ) ;
#37 = ORIENTED_EDGE ( 'NONE', *, *, #61, .F. ) ;
#38 = EDGE_CURVE ( 'NONE', #173, #95, #214, .T. ) ;
#39 = DATE_TIME_ROLE ( 'creation_date' ) ;
#40 = DATE_TIME_ROLE ( 'classification_date' ) ;
#41 = COORDINATED_UNIVERSAL_TIME_OFFSET ( 5, 0, .BEHIND. ) ;
#42 = VERTEX_POINT ( 'NONE', #125 ) ;
#43 = LINE ( 'NONE', #65, #134 ) ;
#44 = CARTESIAN_POINT ( 'NONE',  ( -6.250000000000000000, 6.250000000000000000, 0.0000000000000000000 ) ) ;
#45 = DIRECTION ( 'NONE',  ( 0.0000000000000000000, -1.000000000000000000, 0.0000000000000000000 ) ) ;
#46 = PRODUCT_RELATED_PRODUCT_CATEGORY ( 'detail', '', ( #22 ) ) ;
#47 = DIRECTION ( 'NONE',  ( -1.000000000000000000, 0.0000000000000000000, 0.0000000000000000000 ) ) ;
#48 = DATE_AND_TIME ( #113, #35 ) ;
#49 = ORIENTED_EDGE ( 'NONE', *, *, #38, .T. ) ;
#50 = PERSON_AND_ORGANIZATION ( #174, #186 ) ;
#51 = CC_DESIGN_PERSON_AND_ORGANIZATION_ASSIGNMENT ( #204, #211, ( #7 ) ) ;
#52 = EDGE_CURVE ( 'NONE', #95, #106, #19, .T. ) ;
#53 = ORIENTED_EDGE ( 'NONE', *, *, #55, .T. ) ;
#54 = VECTOR ( 'NONE', #121, 1000.000000000000000 ) ;
#55 = EDGE_CURVE ( 'NONE', #124, #99, #112, .T. ) ;
#56 = DIRECTION ( 'NONE',  ( 0.0000000000000000000, -1.000000000000000000, 0.0000000000000000000 ) ) ;
#57 = CARTESIAN_POINT ( 'NONE',  ( 6.250000000000000000, -6.250000000000000000, 3.000000000000000000 ) ) ;
#58 = APPLICATION_CONTEXT ( 'configuration controlled 3d designs of mechanical parts and assemblies' ) ;
#59 = CARTESIAN_POINT ( 'NONE',  ( -6.250000000000000000, -6.250000000000000000, 0.0000000000000000000 ) ) ;
#60 = ORIENTED_EDGE ( 'NONE', *, *, #75, .T. ) ;
#61 = EDGE_CURVE ( 'NONE', #173, #143, #221, .T. ) ;
#62 = APPROVAL_ROLE ( '' ) ;
#63 = DIRECTION ( 'NONE',  ( 1.000000000000000000, 0.0000000000000000000, -0.0000000000000000000 ) ) ;
#64 = PLANE ( 'NONE',  #156 ) ;
#65 = CARTESIAN_POINT ( 'NONE',  ( 6.250000000000000000, 6.250000000000000000, 3.000000000000000000 ) ) ;
#66 = VECTOR ( 'NONE', #232, 1000.000000000000000 ) ;
#67 = AXIS2_PLACEMENT_3D ( 'NONE', #167, #29, #86 ) ;
#68 = CC_DESIGN_PERSON_AND_ORGANIZATION_ASSIGNMENT ( #24, #13, ( #22 ) ) ;
#69 = CARTESIAN_POINT ( 'NONE',  ( -6.250000000000000000, -6.250000000000000000, 0.0000000000000000000 ) ) ;
#70 = DIRECTION ( 'NONE',  ( -0.0000000000000000000, -0.0000000000000000000, -1.000000000000000000 ) ) ;
#71 = APPROVAL_PERSON_ORGANIZATION ( #50, #217, #159 ) ;
#72 = CARTESIAN_POINT ( 'NONE',  ( -6.250000000000000000, 6.250000000000000000, 0.0000000000000000000 ) ) ;
#73 = ORIENTED_EDGE ( 'NONE', *, *, #18, .T. ) ;
#74 = VECTOR ( 'NONE', #202, 1000.000000000000000 ) ;
#75 = EDGE_CURVE ( 'NONE', #124, #173, #43, .T. ) ;
#76 = EDGE_LOOP ( 'NONE', ( #201, #132, #119, #154 ) ) ;
#77 = LINE ( 'NONE', #165, #92 ) ;
#78 = EDGE_LOOP ( 'NONE', ( #219, #197, #225, #185 ) ) ;
#79 = AXIS2_PLACEMENT_3D ( 'NONE', #139, #96, #84 ) ;
#80 = DATE_AND_TIME ( #151, #191 ) ;
#81 = EDGE_LOOP ( 'NONE', ( #93, #6, #60, #168 ) ) ;
#82 = LINE ( 'NONE', #147, #74 ) ;
#83 = CARTESIAN_POINT ( 'NONE',  ( 6.250000000000000000, -6.250000000000000000, 0.0000000000000000000 ) ) ;
#84 = DIRECTION ( 'NONE',  ( 1.000000000000000000, 0.0000000000000000000, 0.0000000000000000000 ) ) ;
#85 = EDGE_CURVE ( 'NONE', #42, #124, #82, .T. ) ;
#86 = DIRECTION ( 'NONE',  ( 0.0000000000000000000, -0.0000000000000000000, 1.000000000000000000 ) ) ;
#87 = APPROVAL_PERSON_ORGANIZATION ( #188, #234, #62 ) ;
#88 = ADVANCED_BREP_SHAPE_REPRESENTATION ( 'Web Model 49628', ( #137, #79 ), #200 ) ;
#89 = ADVANCED_FACE ( 'NONE', ( #227 ), #104, .F. ) ;
#90 = ADVANCED_FACE ( 'NONE', ( #107 ), #164, .F. ) ;
#91 = APPROVAL_DATE_TIME ( #190, #234 ) ;
#92 = VECTOR ( 'NONE', #45, 1000.000000000000000 ) ;
#93 = ORIENTED_EDGE ( 'NONE', *, *, #138, .T. ) ;
#94 = CARTESIAN_POINT ( 'NONE',  ( -6.250000000000000000, 6.250000000000000000, 3.000000000000000000 ) ) ;
#95 = VERTEX_POINT ( 'NONE', #127 ) ;
#96 = DIRECTION ( 'NONE',  ( 0.0000000000000000000, 0.0000000000000000000, 1.000000000000000000 ) ) ;
#97 = DIRECTION ( 'NONE',  ( -0.0000000000000000000, 0.0000000000000000000, 1.000000000000000000 ) ) ;
#98 = SECURITY_CLASSIFICATION_LEVEL ( 'unclassified' ) ;
#99 = VERTEX_POINT ( 'NONE', #83 ) ;
#100 = DIRECTION ( 'NONE',  ( -0.0000000000000000000, -0.0000000000000000000, -1.000000000000000000 ) ) ;
#101 = CARTESIAN_POINT ( 'NONE',  ( 6.250000000000000000, 6.250000000000000000, 3.000000000000000000 ) ) ;
#102 = DIRECTION ( 'NONE',  ( -0.0000000000000000000, 1.000000000000000000, -0.0000000000000000000 ) ) ;
#103 = EDGE_CURVE ( 'NONE', #176, #99, #25, .T. ) ;
#104 = PLANE ( 'NONE',  #162 ) ;
#105 = COORDINATED_UNIVERSAL_TIME_OFFSET ( 5, 0, .BEHIND. ) ;
#106 = VERTEX_POINT ( 'NONE', #140 ) ;
#107 = FACE_OUTER_BOUND ( 'NONE', #76, .T. ) ;
#108 = PERSON_AND_ORGANIZATION ( #174, #186 ) ;
#109 = CC_DESIGN_DATE_AND_TIME_ASSIGNMENT ( #80, #40, ( #7 ) ) ;
#110 = VECTOR ( 'NONE', #141, 1000.000000000000000 ) ;
#111 = LINE ( 'NONE', #182, #170 ) ;
#112 = LINE ( 'NONE', #15, #161 ) ;
#113 = CALENDAR_DATE ( 2017, 31, 1 ) ;
#114 = DIRECTION ( 'NONE',  ( -0.0000000000000000000, 0.0000000000000000000, 1.000000000000000000 ) ) ;
#115 = PERSON_AND_ORGANIZATION_ROLE ( 'creator' ) ;
#116 = PLANE ( 'NONE',  #120 ) ;
#117 = ADVANCED_FACE ( 'NONE', ( #20 ), #116, .T. ) ;
#118 = CARTESIAN_POINT ( 'NONE',  ( -6.250000000000000000, -6.250000000000000000, 3.000000000000000000 ) ) ;
#119 = ORIENTED_EDGE ( 'NONE', *, *, #138, .F. ) ;
#120 = AXIS2_PLACEMENT_3D ( 'NONE', #118, #97, #195 ) ;
#121 = DIRECTION ( 'NONE',  ( 0.0000000000000000000, -1.000000000000000000, 0.0000000000000000000 ) ) ;
#122 = SHAPE_DEFINITION_REPRESENTATION ( #205, #88 ) ;
#123 = DIRECTION ( 'NONE',  ( -1.000000000000000000, -0.0000000000000000000, -0.0000000000000000000 ) ) ;
#124 = VERTEX_POINT ( 'NONE', #57 ) ;
#125 = CARTESIAN_POINT ( 'NONE',  ( -6.250000000000000000, -6.250000000000000000, 3.000000000000000000 ) ) ;
#126 = ADVANCED_FACE ( 'NONE', ( #3 ), #212, .F. ) ;
#127 = CARTESIAN_POINT ( 'NONE',  ( 6.250000000000000000, 6.250000000000000000, 0.0000000000000000000 ) ) ;
#128 = ORIENTED_EDGE ( 'NONE', *, *, #85, .F. ) ;
#129 = FACE_OUTER_BOUND ( 'NONE', #179, .T. ) ;
#130 = LOCAL_TIME ( 10, 23, 14.00000000000000000, #155 ) ;
#131 = AXIS2_PLACEMENT_3D ( 'NONE', #229, #114, #157 ) ;
#132 = ORIENTED_EDGE ( 'NONE', *, *, #216, .F. ) ;
#133 = ORIENTED_EDGE ( 'NONE', *, *, #38, .F. ) ;
#134 = VECTOR ( 'NONE', #166, 1000.000000000000000 ) ;
#135 = CC_DESIGN_SECURITY_CLASSIFICATION ( #7, ( #194 ) ) ;
#136 = APPROVAL_DATE_TIME ( #48, #28 ) ;
#137 = MANIFOLD_SOLID_BREP ( 'Extrude1', #8 ) ;
#138 = EDGE_CURVE ( 'NONE', #143, #42, #77, .T. ) ;
#139 = CARTESIAN_POINT ( 'NONE',  ( 0.0000000000000000000, 0.0000000000000000000, 0.0000000000000000000 ) ) ;
#140 = CARTESIAN_POINT ( 'NONE',  ( -6.250000000000000000, 6.250000000000000000, 0.0000000000000000000 ) ) ;
#141 = DIRECTION ( 'NONE',  ( -0.0000000000000000000, -0.0000000000000000000, -1.000000000000000000 ) ) ;
#142 = DATE_AND_TIME ( #4, #130 ) ;
#143 = VERTEX_POINT ( 'NONE', #163 ) ;
#144 = CC_DESIGN_APPROVAL ( #217, ( #222 ) ) ;
#145 = DIRECTION ( 'NONE',  ( -0.0000000000000000000, -0.0000000000000000000, -1.000000000000000000 ) ) ;
#146 = DIRECTION ( 'NONE',  ( -1.000000000000000000, -0.0000000000000000000, -0.0000000000000000000 ) ) ;
#147 = CARTESIAN_POINT ( 'NONE',  ( -6.250000000000000000, -6.250000000000000000, 3.000000000000000000 ) ) ;
#148 = DATE_AND_TIME ( #209, #203 ) ;
#149 = UNCERTAINTY_MEASURE_WITH_UNIT (LENGTH_MEASURE( 1.000000000000000100E-005 ), #153, 'distance_accuracy_value', 'NONE');
#150 = CC_DESIGN_APPROVAL ( #234, ( #194 ) ) ;
#151 = CALENDAR_DATE ( 2017, 31, 1 ) ;
#152 = ORIENTED_EDGE ( 'NONE', *, *, #55, .F. ) ;
#153 =( LENGTH_UNIT ( ) NAMED_UNIT ( * ) SI_UNIT ( .MILLI., .METRE. ) );
#154 = ORIENTED_EDGE ( 'NONE', *, *, #178, .T. ) ;
#155 = COORDINATED_UNIVERSAL_TIME_OFFSET ( 5, 0, .BEHIND. ) ;
#156 = AXIS2_PLACEMENT_3D ( 'NONE', #94, #56, #12 ) ;
#157 = DIRECTION ( 'NONE',  ( 1.000000000000000000, 0.0000000000000000000, 0.0000000000000000000 ) ) ;
#158 = EDGE_LOOP ( 'NONE', ( #2, #152, #128, #192 ) ) ;
#159 = APPROVAL_ROLE ( '' ) ;
#160 = CARTESIAN_POINT ( 'NONE',  ( -6.250000000000000000, 6.250000000000000000, 3.000000000000000000 ) ) ;
#161 = VECTOR ( 'NONE', #70, 1000.000000000000000 ) ;
#162 = AXIS2_PLACEMENT_3D ( 'NONE', #199, #47, #215 ) ;
#163 = CARTESIAN_POINT ( 'NONE',  ( -6.250000000000000000, 6.250000000000000000, 3.000000000000000000 ) ) ;
#164 = PLANE ( 'NONE',  #187 ) ;
#165 = CARTESIAN_POINT ( 'NONE',  ( -6.250000000000000000, 6.250000000000000000, 3.000000000000000000 ) ) ;
#166 = DIRECTION ( 'NONE',  ( -0.0000000000000000000, 1.000000000000000000, -0.0000000000000000000 ) ) ;
#167 = CARTESIAN_POINT ( 'NONE',  ( -6.250000000000000000, -6.250000000000000000, 3.000000000000000000 ) ) ;
#168 = ORIENTED_EDGE ( 'NONE', *, *, #61, .T. ) ;
#169 = VECTOR ( 'NONE', #102, 1000.000000000000000 ) ;
#170 = VECTOR ( 'NONE', #145, 1000.000000000000000 ) ;
#171 = EDGE_CURVE ( 'NONE', #106, #176, #14, .T. ) ;
#172 = PERSON_AND_ORGANIZATION ( #174, #186 ) ;
#173 = VERTEX_POINT ( 'NONE', #16 ) ;
#174 = PERSON ( 'UNSPECIFIED', 'UNSPECIFIED', 'UNSPECIFIED', ('UNSPECIFIED'), ('UNSPECIFIED'), ('UNSPECIFIED') ) ;
#175 = APPROVAL_STATUS ( 'not_yet_approved' ) ;
#176 = VERTEX_POINT ( 'NONE', #69 ) ;
#177 = VECTOR ( 'NONE', #146, 1000.000000000000000 ) ;
#178 = EDGE_CURVE ( 'NONE', #143, #106, #111, .T. ) ;
#179 = EDGE_LOOP ( 'NONE', ( #32, #236, #37, #49 ) ) ;
#180 = CARTESIAN_POINT ( 'NONE',  ( -6.250000000000000000, -6.250000000000000000, 3.000000000000000000 ) ) ;
#181 = PLANE ( 'NONE',  #67 ) ;
#182 = CARTESIAN_POINT ( 'NONE',  ( -6.250000000000000000, 6.250000000000000000, 3.000000000000000000 ) ) ;
#183 = CC_DESIGN_PERSON_AND_ORGANIZATION_ASSIGNMENT ( #108, #213, ( #222 ) ) ;
#184 = ORIENTED_EDGE ( 'NONE', *, *, #75, .F. ) ;
#185 = ORIENTED_EDGE ( 'NONE', *, *, #103, .F. ) ;
#186 = ORGANIZATION ( 'UNSPECIFIED', 'UNSPECIFIED', '' ) ;
#187 = AXIS2_PLACEMENT_3D ( 'NONE', #218, #63, #198 ) ;
#188 = PERSON_AND_ORGANIZATION ( #174, #186 ) ;
#189 =( NAMED_UNIT ( * ) PLANE_ANGLE_UNIT ( ) SI_UNIT ( $, .RADIAN. ) );
#190 = DATE_AND_TIME ( #1, #33 ) ;
#191 = LOCAL_TIME ( 10, 23, 14.00000000000000000, #207 ) ;
#192 = ORIENTED_EDGE ( 'NONE', *, *, #216, .T. ) ;
#193 = APPROVAL_ROLE ( '' ) ;
#194 = PRODUCT_DEFINITION_FORMATION_WITH_SPECIFIED_SOURCE ( 'ANY', '', #22, .NOT_KNOWN. ) ;
#195 = DIRECTION ( 'NONE',  ( 1.000000000000000000, 0.0000000000000000000, 0.0000000000000000000 ) ) ;
#196 = MECHANICAL_CONTEXT ( 'NONE', #58, 'mechanical' ) ;
#197 = ORIENTED_EDGE ( 'NONE', *, *, #52, .F. ) ;
#198 = DIRECTION ( 'NONE',  ( -0.0000000000000000000, 0.0000000000000000000, -1.000000000000000000 ) ) ;
#199 = CARTESIAN_POINT ( 'NONE',  ( 6.250000000000000000, 6.250000000000000000, 3.000000000000000000 ) ) ;
#200 =( GEOMETRIC_REPRESENTATION_CONTEXT ( 3 ) GLOBAL_UNCERTAINTY_ASSIGNED_CONTEXT ( ( #149 ) ) GLOBAL_UNIT_ASSIGNED_CONTEXT ( ( #153, #189, #224 ) ) REPRESENTATION_CONTEXT ( 'NONE', 'WORKASPACE' ) );
#201 = ORIENTED_EDGE ( 'NONE', *, *, #171, .T. ) ;
#202 = DIRECTION ( 'NONE',  ( 1.000000000000000000, 0.0000000000000000000, 0.0000000000000000000 ) ) ;
#203 = LOCAL_TIME ( 10, 23, 14.00000000000000000, #105 ) ;
#204 = PERSON_AND_ORGANIZATION ( #174, #186 ) ;
#205 = PRODUCT_DEFINITION_SHAPE ( 'NONE', 'NONE',  #222 ) ;
#206 = CC_DESIGN_PERSON_AND_ORGANIZATION_ASSIGNMENT ( #233, #115, ( #194 ) ) ;
#207 = COORDINATED_UNIVERSAL_TIME_OFFSET ( 5, 0, .BEHIND. ) ;
#208 = EDGE_LOOP ( 'NONE', ( #73, #133, #184, #53 ) ) ;
#209 = CALENDAR_DATE ( 2017, 31, 1 ) ;
#210 = VECTOR ( 'NONE', #123, 1000.000000000000000 ) ;
#211 = PERSON_AND_ORGANIZATION_ROLE ( 'classification_officer' ) ;
#212 = PLANE ( 'NONE',  #131 ) ;
#213 = PERSON_AND_ORGANIZATION_ROLE ( 'creator' ) ;
#214 = LINE ( 'NONE', #101, #110 ) ;
#215 = DIRECTION ( 'NONE',  ( 0.0000000000000000000, 0.0000000000000000000, 1.000000000000000000 ) ) ;
#216 = EDGE_CURVE ( 'NONE', #42, #176, #26, .T. ) ;
#217 = APPROVAL ( #231, 'UNSPECIFIED' ) ;
#218 = CARTESIAN_POINT ( 'NONE',  ( -6.250000000000000000, 6.250000000000000000, 3.000000000000000000 ) ) ;
#219 = ORIENTED_EDGE ( 'NONE', *, *, #171, .F. ) ;
#220 = LINE ( 'NONE', #235, #169 ) ;
#221 = LINE ( 'NONE', #160, #177 ) ;
#222 = PRODUCT_DEFINITION ( 'UNKNOWN', '', #194, #226 ) ;
#223 = PERSON_AND_ORGANIZATION ( #174, #186 ) ;
#224 =( NAMED_UNIT ( * ) SI_UNIT ( $, .STERADIAN. ) SOLID_ANGLE_UNIT ( ) );
#225 = ORIENTED_EDGE ( 'NONE', *, *, #18, .F. ) ;
#226 = DESIGN_CONTEXT ( 'detailed design', #27, 'design' ) ;
#227 = FACE_OUTER_BOUND ( 'NONE', #208, .T. ) ;
#228 = APPLICATION_PROTOCOL_DEFINITION ( 'international standard', 'config_control_design', 1994, #58 ) ;
#229 = CARTESIAN_POINT ( 'NONE',  ( -6.250000000000000000, -6.250000000000000000, 0.0000000000000000000 ) ) ;
#230 = PERSON_AND_ORGANIZATION_ROLE ( 'design_supplier' ) ;
#231 = APPROVAL_STATUS ( 'not_yet_approved' ) ;
#232 = DIRECTION ( 'NONE',  ( 1.000000000000000000, 0.0000000000000000000, 0.0000000000000000000 ) ) ;
#233 = PERSON_AND_ORGANIZATION ( #174, #186 ) ;
#234 = APPROVAL ( #11, 'UNSPECIFIED' ) ;
#235 = CARTESIAN_POINT ( 'NONE',  ( 6.250000000000000000, 6.250000000000000000, 0.0000000000000000000 ) ) ;
#236 = ORIENTED_EDGE ( 'NONE', *, *, #178, .F. ) ;
#237 = ADVANCED_FACE ( 'NONE', ( #129 ), #64, .F. ) ;
ENDSEC;
END-ISO-10303-21;
