ISO-10303-21;
HEADER;
FILE_DESCRIPTION (( 'STEP AP203' ),
    '1' );
FILE_NAME ('Web Model 45570_45814.step',
    '2019-01-07T15:33:21',
    ( '' ),
    ( '' ),
    'SwSTEP 2.0',
    'SolidWorks 2016',
    '' );
FILE_SCHEMA (( 'CONFIG_CONTROL_DESIGN' ));
ENDSEC;

DATA;
#1 = EDGE_LOOP ( 'NONE', ( #62, #58 ) ) ;
#2 = CC_DESIGN_PERSON_AND_ORGANIZATION_ASSIGNMENT ( #14, #147, ( #103 ) ) ;
#3 = PERSON_AND_ORGANIZATION ( #92, #102 ) ;
#4 = VECTOR ( 'NONE', #83, 1000.000000000000000 ) ;
#5 = VERTEX_POINT ( 'NONE', #32 ) ;
#6 = CARTESIAN_POINT ( 'NONE',  ( 20.00000000000000000, 2.449293598294706500E-015, -2.000000000000000000 ) ) ;
#7 = CARTESIAN_POINT ( 'NONE',  ( 20.00000000000000000, 2.449293598294706500E-015, 2.000000000000000000 ) ) ;
#8 = PERSON_AND_ORGANIZATION_ROLE ( 'design_supplier' ) ;
#9 = APPLICATION_CONTEXT ( 'configuration controlled 3d designs of mechanical parts and assemblies' ) ;
#10 = PERSON_AND_ORGANIZATION ( #92, #102 ) ;
#11 = APPLICATION_PROTOCOL_DEFINITION ( 'international standard', 'config_control_design', 1994, #157 ) ;
#12 = DATE_AND_TIME ( #90, #131 ) ;
#13 = AXIS2_PLACEMENT_3D ( 'NONE', #93, #107, #17 ) ;
#14 = PERSON_AND_ORGANIZATION ( #92, #102 ) ;
#15 = LINE ( 'NONE', #7, #4 ) ;
#16 = CARTESIAN_POINT ( 'NONE',  ( 0.0000000000000000000, 0.0000000000000000000, 2.000000000000000000 ) ) ;
#17 = DIRECTION ( 'NONE',  ( -1.000000000000000000, 0.0000000000000000000, 0.0000000000000000000 ) ) ;
#18 = DIRECTION ( 'NONE',  ( 1.000000000000000000, 0.0000000000000000000, 0.0000000000000000000 ) ) ;
#19 = APPROVAL_PERSON_ORGANIZATION ( #46, #113, #174 ) ;
#20 = EDGE_CURVE ( 'NONE', #89, #31, #160, .T. ) ;
#21 = EDGE_CURVE ( 'NONE', #89, #5, #71, .T. ) ;
#22 = DATE_TIME_ROLE ( 'classification_date' ) ;
#23 = ORIENTED_EDGE ( 'NONE', *, *, #64, .F. ) ;
#24 = AXIS2_PLACEMENT_3D ( 'NONE', #68, #109, #123 ) ;
#25 = LOCAL_TIME ( 10, 33, 21.00000000000000000, #173 ) ;
#26 = VERTEX_POINT ( 'NONE', #6 ) ;
#27 = CC_DESIGN_PERSON_AND_ORGANIZATION_ASSIGNMENT ( #44, #8, ( #103 ) ) ;
#28 = ORIENTED_EDGE ( 'NONE', *, *, #64, .T. ) ;
#29 = EDGE_CURVE ( 'NONE', #5, #26, #39, .T. ) ;
#30 = CC_DESIGN_PERSON_AND_ORGANIZATION_ASSIGNMENT ( #38, #35, ( #41 ) ) ;
#31 = VERTEX_POINT ( 'NONE', #80 ) ;
#32 = CARTESIAN_POINT ( 'NONE',  ( -20.00000000000000000, 0.0000000000000000000, -2.000000000000000000 ) ) ;
#33 = DIRECTION ( 'NONE',  ( 0.0000000000000000000, 0.0000000000000000000, 1.000000000000000000 ) ) ;
#34 = AXIS2_PLACEMENT_3D ( 'NONE', #111, #33, #47 ) ;
#35 = PERSON_AND_ORGANIZATION_ROLE ( 'design_owner' ) ;
#36 =( NAMED_UNIT ( * ) SI_UNIT ( $, .STERADIAN. ) SOLID_ANGLE_UNIT ( ) );
#37 = PRODUCT_DEFINITION_SHAPE ( 'NONE', 'NONE',  #69 ) ;
#38 = PERSON_AND_ORGANIZATION ( #92, #102 ) ;
#39 = CIRCLE ( 'NONE', #151, 20.00000000000000000 ) ;
#40 = AXIS2_PLACEMENT_3D ( 'NONE', #96, #164, #120 ) ;
#41 = PRODUCT ( 'Web Model 45570_45814', 'Web Model 45570_45814', '', ( #130 ) ) ;
#42 = APPROVAL_DATE_TIME ( #74, #113 ) ;
#43 =( LENGTH_UNIT ( ) NAMED_UNIT ( * ) SI_UNIT ( .MILLI., .METRE. ) );
#44 = PERSON_AND_ORGANIZATION ( #92, #102 ) ;
#45 = DIRECTION ( 'NONE',  ( 1.000000000000000000, 0.0000000000000000000, 0.0000000000000000000 ) ) ;
#46 = PERSON_AND_ORGANIZATION ( #92, #102 ) ;
#47 = DIRECTION ( 'NONE',  ( 1.000000000000000000, 0.0000000000000000000, -0.0000000000000000000 ) ) ;
#48 = MANIFOLD_SOLID_BREP ( 'Boss-Extrude1', #128 ) ;
#49 = CC_DESIGN_APPROVAL ( #113, ( #69 ) ) ;
#50 = CALENDAR_DATE ( 2019, 7, 1 ) ;
#51 = FACE_OUTER_BOUND ( 'NONE', #1, .T. ) ;
#52 = APPROVAL_PERSON_ORGANIZATION ( #133, #136, #86 ) ;
#53 = AXIS2_PLACEMENT_3D ( 'NONE', #16, #155, #153 ) ;
#54 = CIRCLE ( 'NONE', #66, 20.00000000000000000 ) ;
#55 = PLANE ( 'NONE',  #53 ) ;
#56 = EDGE_LOOP ( 'NONE', ( #23, #98, #77, #162 ) ) ;
#57 =( GEOMETRIC_REPRESENTATION_CONTEXT ( 3 ) GLOBAL_UNCERTAINTY_ASSIGNED_CONTEXT ( ( #75 ) ) GLOBAL_UNIT_ASSIGNED_CONTEXT ( ( #43, #169, #36 ) ) REPRESENTATION_CONTEXT ( 'NONE', 'WORKASPACE' ) );
#58 = ORIENTED_EDGE ( 'NONE', *, *, #73, .T. ) ;
#59 = PERSON_AND_ORGANIZATION_ROLE ( 'creator' ) ;
#60 = APPROVAL_ROLE ( '' ) ;
#61 = APPROVAL_STATUS ( 'not_yet_approved' ) ;
#62 = ORIENTED_EDGE ( 'NONE', *, *, #20, .T. ) ;
#63 = LOCAL_TIME ( 10, 33, 21.00000000000000000, #115 ) ;
#64 = EDGE_CURVE ( 'NONE', #31, #26, #15, .T. ) ;
#65 = CIRCLE ( 'NONE', #158, 20.00000000000000000 ) ;
#66 = AXIS2_PLACEMENT_3D ( 'NONE', #121, #95, #18 ) ;
#67 = FACE_OUTER_BOUND ( 'NONE', #101, .T. ) ;
#68 = CARTESIAN_POINT ( 'NONE',  ( 0.0000000000000000000, 0.0000000000000000000, 2.000000000000000000 ) ) ;
#69 = PRODUCT_DEFINITION ( 'UNKNOWN', '', #103, #163 ) ;
#70 = DIRECTION ( 'NONE',  ( -0.0000000000000000000, -0.0000000000000000000, -1.000000000000000000 ) ) ;
#71 = LINE ( 'NONE', #124, #116 ) ;
#72 = FACE_OUTER_BOUND ( 'NONE', #56, .T. ) ;
#73 = EDGE_CURVE ( 'NONE', #31, #89, #54, .T. ) ;
#74 = DATE_AND_TIME ( #137, #25 ) ;
#75 = UNCERTAINTY_MEASURE_WITH_UNIT (LENGTH_MEASURE( 1.000000000000000100E-005 ), #43, 'distance_accuracy_value', 'NONE');
#76 = COORDINATED_UNIVERSAL_TIME_OFFSET ( 5, 0, .BEHIND. ) ;
#77 = ORIENTED_EDGE ( 'NONE', *, *, #21, .T. ) ;
#78 = ADVANCED_FACE ( 'NONE', ( #72 ), #161, .T. ) ;
#79 = PRODUCT_RELATED_PRODUCT_CATEGORY ( 'detail', '', ( #41 ) ) ;
#80 = CARTESIAN_POINT ( 'NONE',  ( 20.00000000000000000, 2.449293598294706500E-015, 2.000000000000000000 ) ) ;
#81 = CALENDAR_DATE ( 2019, 7, 1 ) ;
#82 = DIRECTION ( 'NONE',  ( 0.0000000000000000000, 0.0000000000000000000, 1.000000000000000000 ) ) ;
#83 = DIRECTION ( 'NONE',  ( -0.0000000000000000000, -0.0000000000000000000, -1.000000000000000000 ) ) ;
#84 = CC_DESIGN_APPROVAL ( #145, ( #103 ) ) ;
#85 = ORIENTED_EDGE ( 'NONE', *, *, #21, .F. ) ;
#86 = APPROVAL_ROLE ( '' ) ;
#87 = PERSON_AND_ORGANIZATION_ROLE ( 'classification_officer' ) ;
#88 = APPROVAL_DATE_TIME ( #91, #145 ) ;
#89 = VERTEX_POINT ( 'NONE', #141 ) ;
#90 = CALENDAR_DATE ( 2019, 7, 1 ) ;
#91 = DATE_AND_TIME ( #144, #117 ) ;
#92 = PERSON ( 'UNSPECIFIED', 'UNSPECIFIED', 'UNSPECIFIED', ('UNSPECIFIED'), ('UNSPECIFIED'), ('UNSPECIFIED') ) ;
#93 = CARTESIAN_POINT ( 'NONE',  ( 0.0000000000000000000, 0.0000000000000000000, 2.000000000000000000 ) ) ;
#94 = ADVANCED_BREP_SHAPE_REPRESENTATION ( 'Web Model 45570_45814', ( #48, #149 ), #57 ) ;
#95 = DIRECTION ( 'NONE',  ( 0.0000000000000000000, 0.0000000000000000000, 1.000000000000000000 ) ) ;
#96 = CARTESIAN_POINT ( 'NONE',  ( 0.0000000000000000000, 0.0000000000000000000, 2.000000000000000000 ) ) ;
#97 = CC_DESIGN_PERSON_AND_ORGANIZATION_ASSIGNMENT ( #10, #59, ( #69 ) ) ;
#98 = ORIENTED_EDGE ( 'NONE', *, *, #20, .F. ) ;
#99 = CC_DESIGN_APPROVAL ( #136, ( #166 ) ) ;
#100 = DATE_AND_TIME ( #81, #150 ) ;
#101 = EDGE_LOOP ( 'NONE', ( #134, #152 ) ) ;
#102 = ORGANIZATION ( 'UNSPECIFIED', 'UNSPECIFIED', '' ) ;
#103 = PRODUCT_DEFINITION_FORMATION_WITH_SPECIFIED_SOURCE ( 'ANY', '', #41, .NOT_KNOWN. ) ;
#104 = DATE_AND_TIME ( #50, #63 ) ;
#105 = ORIENTED_EDGE ( 'NONE', *, *, #73, .F. ) ;
#106 = ADVANCED_FACE ( 'NONE', ( #51 ), #55, .T. ) ;
#107 = DIRECTION ( 'NONE',  ( -0.0000000000000000000, -0.0000000000000000000, -1.000000000000000000 ) ) ;
#108 = DIRECTION ( 'NONE',  ( 0.0000000000000000000, 0.0000000000000000000, 1.000000000000000000 ) ) ;
#109 = DIRECTION ( 'NONE',  ( -0.0000000000000000000, -0.0000000000000000000, -1.000000000000000000 ) ) ;
#110 = APPROVAL_DATE_TIME ( #100, #136 ) ;
#111 = CARTESIAN_POINT ( 'NONE',  ( 0.0000000000000000000, 0.0000000000000000000, -2.000000000000000000 ) ) ;
#112 = DATE_TIME_ROLE ( 'creation_date' ) ;
#113 = APPROVAL ( #129, 'UNSPECIFIED' ) ;
#114 = DIRECTION ( 'NONE',  ( 0.0000000000000000000, 0.0000000000000000000, 1.000000000000000000 ) ) ;
#115 = COORDINATED_UNIVERSAL_TIME_OFFSET ( 5, 0, .BEHIND. ) ;
#116 = VECTOR ( 'NONE', #70, 1000.000000000000000 ) ;
#117 = LOCAL_TIME ( 10, 33, 21.00000000000000000, #159 ) ;
#118 = CC_DESIGN_DATE_AND_TIME_ASSIGNMENT ( #104, #22, ( #166 ) ) ;
#119 = ORIENTED_EDGE ( 'NONE', *, *, #132, .T. ) ;
#120 = DIRECTION ( 'NONE',  ( 1.000000000000000000, 0.0000000000000000000, 0.0000000000000000000 ) ) ;
#121 = CARTESIAN_POINT ( 'NONE',  ( 0.0000000000000000000, 0.0000000000000000000, 2.000000000000000000 ) ) ;
#122 = EDGE_LOOP ( 'NONE', ( #105, #28, #119, #85 ) ) ;
#123 = DIRECTION ( 'NONE',  ( -1.000000000000000000, 0.0000000000000000000, 0.0000000000000000000 ) ) ;
#124 = CARTESIAN_POINT ( 'NONE',  ( -20.00000000000000000, 0.0000000000000000000, 2.000000000000000000 ) ) ;
#125 = CC_DESIGN_DATE_AND_TIME_ASSIGNMENT ( #12, #112, ( #69 ) ) ;
#126 = SECURITY_CLASSIFICATION_LEVEL ( 'unclassified' ) ;
#127 = ADVANCED_FACE ( 'NONE', ( #156 ), #139, .T. ) ;
#128 = CLOSED_SHELL ( 'NONE', ( #127, #78, #106, #142 ) ) ;
#129 = APPROVAL_STATUS ( 'not_yet_approved' ) ;
#130 = MECHANICAL_CONTEXT ( 'NONE', #9, 'mechanical' ) ;
#131 = LOCAL_TIME ( 10, 33, 21.00000000000000000, #148 ) ;
#132 = EDGE_CURVE ( 'NONE', #26, #5, #65, .T. ) ;
#133 = PERSON_AND_ORGANIZATION ( #92, #102 ) ;
#134 = ORIENTED_EDGE ( 'NONE', *, *, #29, .F. ) ;
#135 = CC_DESIGN_PERSON_AND_ORGANIZATION_ASSIGNMENT ( #154, #87, ( #166 ) ) ;
#136 = APPROVAL ( #61, 'UNSPECIFIED' ) ;
#137 = CALENDAR_DATE ( 2019, 7, 1 ) ;
#138 = APPROVAL_PERSON_ORGANIZATION ( #3, #145, #60 ) ;
#139 = CYLINDRICAL_SURFACE ( 'NONE', #24, 20.00000000000000000 ) ;
#140 = CARTESIAN_POINT ( 'NONE',  ( 0.0000000000000000000, 0.0000000000000000000, -2.000000000000000000 ) ) ;
#141 = CARTESIAN_POINT ( 'NONE',  ( -20.00000000000000000, 0.0000000000000000000, 2.000000000000000000 ) ) ;
#142 = ADVANCED_FACE ( 'NONE', ( #67 ), #143, .F. ) ;
#143 = PLANE ( 'NONE',  #34 ) ;
#144 = CALENDAR_DATE ( 2019, 7, 1 ) ;
#145 = APPROVAL ( #146, 'UNSPECIFIED' ) ;
#146 = APPROVAL_STATUS ( 'not_yet_approved' ) ;
#147 = PERSON_AND_ORGANIZATION_ROLE ( 'creator' ) ;
#148 = COORDINATED_UNIVERSAL_TIME_OFFSET ( 5, 0, .BEHIND. ) ;
#149 = AXIS2_PLACEMENT_3D ( 'NONE', #172, #114, #45 ) ;
#150 = LOCAL_TIME ( 10, 33, 21.00000000000000000, #76 ) ;
#151 = AXIS2_PLACEMENT_3D ( 'NONE', #140, #82, #168 ) ;
#152 = ORIENTED_EDGE ( 'NONE', *, *, #132, .F. ) ;
#153 = DIRECTION ( 'NONE',  ( 1.000000000000000000, 0.0000000000000000000, -0.0000000000000000000 ) ) ;
#154 = PERSON_AND_ORGANIZATION ( #92, #102 ) ;
#155 = DIRECTION ( 'NONE',  ( 0.0000000000000000000, 0.0000000000000000000, 1.000000000000000000 ) ) ;
#156 = FACE_OUTER_BOUND ( 'NONE', #122, .T. ) ;
#157 = APPLICATION_CONTEXT ( 'configuration controlled 3d designs of mechanical parts and assemblies' ) ;
#158 = AXIS2_PLACEMENT_3D ( 'NONE', #165, #108, #167 ) ;
#159 = COORDINATED_UNIVERSAL_TIME_OFFSET ( 5, 0, .BEHIND. ) ;
#160 = CIRCLE ( 'NONE', #40, 20.00000000000000000 ) ;
#161 = CYLINDRICAL_SURFACE ( 'NONE', #13, 20.00000000000000000 ) ;
#162 = ORIENTED_EDGE ( 'NONE', *, *, #29, .T. ) ;
#163 = DESIGN_CONTEXT ( 'detailed design', #157, 'design' ) ;
#164 = DIRECTION ( 'NONE',  ( 0.0000000000000000000, 0.0000000000000000000, 1.000000000000000000 ) ) ;
#165 = CARTESIAN_POINT ( 'NONE',  ( 0.0000000000000000000, 0.0000000000000000000, -2.000000000000000000 ) ) ;
#166 = SECURITY_CLASSIFICATION ( '', '', #126 ) ;
#167 = DIRECTION ( 'NONE',  ( 1.000000000000000000, 0.0000000000000000000, 0.0000000000000000000 ) ) ;
#168 = DIRECTION ( 'NONE',  ( 1.000000000000000000, 0.0000000000000000000, 0.0000000000000000000 ) ) ;
#169 =( NAMED_UNIT ( * ) PLANE_ANGLE_UNIT ( ) SI_UNIT ( $, .RADIAN. ) );
#170 = SHAPE_DEFINITION_REPRESENTATION ( #37, #94 ) ;
#171 = APPLICATION_PROTOCOL_DEFINITION ( 'international standard', 'config_control_design', 1994, #9 ) ;
#172 = CARTESIAN_POINT ( 'NONE',  ( 0.0000000000000000000, 0.0000000000000000000, 0.0000000000000000000 ) ) ;
#173 = COORDINATED_UNIVERSAL_TIME_OFFSET ( 5, 0, .BEHIND. ) ;
#174 = APPROVAL_ROLE ( '' ) ;
#175 = CC_DESIGN_SECURITY_CLASSIFICATION ( #166, ( #103 ) ) ;
ENDSEC;
END-ISO-10303-21;
