ISO-10303-21;
HEADER;
FILE_DESCRIPTION (( 'STEP AP203' ),
    '1' );
FILE_NAME ('ISP Flat Parts_16803.step',
    '2020-12-15T21:27:08',
    ( '' ),
    ( '' ),
    'SwSTEP 2.0',
    'SolidWorks 2018',
    '' );
FILE_SCHEMA (( 'CONFIG_CONTROL_DESIGN' ));
ENDSEC;

DATA;
#1 = FACE_OUTER_BOUND ( 'NONE', #8, .T. ) ;
#2 = PERSON_AND_ORGANIZATION ( #119, #10 ) ;
#3 = DIRECTION ( 'NONE',  ( 1.000000000000000000, 0.0000000000000000000, -0.0000000000000000000 ) ) ;
#4 = PERSON_AND_ORGANIZATION_ROLE ( 'design_supplier' ) ;
#5 = DIRECTION ( 'NONE',  ( 0.0000000000000000000, 0.0000000000000000000, 1.000000000000000000 ) ) ;
#6 = DIRECTION ( 'NONE',  ( -0.0000000000000000000, -0.0000000000000000000, -1.000000000000000000 ) ) ;
#7 = APPROVAL_PERSON_ORGANIZATION ( #49, #154, #33 ) ;
#8 = EDGE_LOOP ( 'NONE', ( #35, #71 ) ) ;
#9 = EDGE_CURVE ( 'NONE', #62, #88, #108, .T. ) ;
#10 = ORGANIZATION ( 'UNSPECIFIED', 'UNSPECIFIED', '' ) ;
#11 = AXIS2_PLACEMENT_3D ( 'NONE', #171, #5, #156 ) ;
#12 = PRODUCT_DEFINITION_FORMATION_WITH_SPECIFIED_SOURCE ( 'ANY', '', #131, .NOT_KNOWN. ) ;
#13 = LOCAL_TIME ( 16, 27, 8.000000000000000000, #46 ) ;
#14 = VECTOR ( 'NONE', #168, 1000.000000000000000 ) ;
#15 = CARTESIAN_POINT ( 'NONE',  ( 0.0000000000000000000, 0.0000000000000000000, 0.0000000000000000000 ) ) ;
#16 = APPROVAL_STATUS ( 'not_yet_approved' ) ;
#17 = AXIS2_PLACEMENT_3D ( 'NONE', #58, #103, #153 ) ;
#18 = PLANE ( 'NONE',  #57 ) ;
#19 = CLOSED_SHELL ( 'NONE', ( #32, #51, #133, #173 ) ) ;
#20 = APPLICATION_CONTEXT ( 'configuration controlled 3d designs of mechanical parts and assemblies' ) ;
#21 = COORDINATED_UNIVERSAL_TIME_OFFSET ( 5, 0, .BEHIND. ) ;
#22 = AXIS2_PLACEMENT_3D ( 'NONE', #70, #42, #29 ) ;
#23 = EDGE_LOOP ( 'NONE', ( #96, #151 ) ) ;
#24 = APPROVAL ( #172, 'UNSPECIFIED' ) ;
#25 = SHAPE_DEFINITION_REPRESENTATION ( #97, #109 ) ;
#26 = UNCERTAINTY_MEASURE_WITH_UNIT (LENGTH_MEASURE( 1.000000000000000082E-05 ), #74, 'distance_accuracy_value', 'NONE');
#27 = ORIENTED_EDGE ( 'NONE', *, *, #53, .T. ) ;
#28 = DIRECTION ( 'NONE',  ( 1.000000000000000000, 0.0000000000000000000, 0.0000000000000000000 ) ) ;
#29 = DIRECTION ( 'NONE',  ( -1.000000000000000000, 0.0000000000000000000, 0.0000000000000000000 ) ) ;
#30 = FACE_OUTER_BOUND ( 'NONE', #160, .T. ) ;
#31 = PERSON_AND_ORGANIZATION_ROLE ( 'creator' ) ;
#32 = ADVANCED_FACE ( 'NONE', ( #30 ), #55, .T. ) ;
#33 = APPROVAL_ROLE ( '' ) ;
#34 = DESIGN_CONTEXT ( 'detailed design', #20, 'design' ) ;
#35 = ORIENTED_EDGE ( 'NONE', *, *, #53, .F. ) ;
#36 = CC_DESIGN_APPROVAL ( #24, ( #12 ) ) ;
#37 = ORIENTED_EDGE ( 'NONE', *, *, #161, .F. ) ;
#38 = LINE ( 'NONE', #129, #110 ) ;
#39 = AXIS2_PLACEMENT_3D ( 'NONE', #152, #85, #28 ) ;
#40 = DATE_AND_TIME ( #78, #163 ) ;
#41 = ORIENTED_EDGE ( 'NONE', *, *, #83, .F. ) ;
#42 = DIRECTION ( 'NONE',  ( -0.0000000000000000000, -0.0000000000000000000, -1.000000000000000000 ) ) ;
#43 = DIRECTION ( 'NONE',  ( -0.0000000000000000000, -0.0000000000000000000, -1.000000000000000000 ) ) ;
#44 = DATE_TIME_ROLE ( 'classification_date' ) ;
#45 = DIRECTION ( 'NONE',  ( 1.000000000000000000, 0.0000000000000000000, 0.0000000000000000000 ) ) ;
#46 = COORDINATED_UNIVERSAL_TIME_OFFSET ( 5, 0, .BEHIND. ) ;
#47 = AXIS2_PLACEMENT_3D ( 'NONE', #86, #43, #139 ) ;
#48 = CARTESIAN_POINT ( 'NONE',  ( 0.0000000000000000000, 0.0000000000000000000, 3.000000000000000000 ) ) ;
#49 = PERSON_AND_ORGANIZATION ( #119, #10 ) ;
#50 = AXIS2_PLACEMENT_3D ( 'NONE', #48, #157, #73 ) ;
#51 = ADVANCED_FACE ( 'NONE', ( #164 ), #135, .T. ) ;
#52 = PERSON_AND_ORGANIZATION ( #119, #10 ) ;
#53 = EDGE_CURVE ( 'NONE', #88, #62, #100, .T. ) ;
#54 = APPROVAL_DATE_TIME ( #87, #154 ) ;
#55 = CYLINDRICAL_SURFACE ( 'NONE', #47, 25.39999999999999858 ) ;
#56 = CARTESIAN_POINT ( 'NONE',  ( 25.39999999999999858, 3.110602869834276865E-15, 3.000000000000000000 ) ) ;
#57 = AXIS2_PLACEMENT_3D ( 'NONE', #15, #128, #3 ) ;
#58 = CARTESIAN_POINT ( 'NONE',  ( 0.0000000000000000000, 0.0000000000000000000, 0.0000000000000000000 ) ) ;
#59 = LINE ( 'NONE', #125, #14 ) ;
#60 = CARTESIAN_POINT ( 'NONE',  ( -25.39999999999999858, 0.0000000000000000000, 3.000000000000000000 ) ) ;
#61 = CARTESIAN_POINT ( 'NONE',  ( 0.0000000000000000000, 0.0000000000000000000, 3.000000000000000000 ) ) ;
#62 = VERTEX_POINT ( 'NONE', #126 ) ;
#63 = DATE_AND_TIME ( #101, #13 ) ;
#64 = APPROVAL_DATE_TIME ( #102, #24 ) ;
#65 = CC_DESIGN_PERSON_AND_ORGANIZATION_ASSIGNMENT ( #134, #104, ( #12 ) ) ;
#66 = VERTEX_POINT ( 'NONE', #56 ) ;
#67 = EDGE_CURVE ( 'NONE', #66, #62, #59, .T. ) ;
#68 = CIRCLE ( 'NONE', #136, 25.39999999999999858 ) ;
#69 = CC_DESIGN_SECURITY_CLASSIFICATION ( #80, ( #12 ) ) ;
#70 = CARTESIAN_POINT ( 'NONE',  ( 0.0000000000000000000, 0.0000000000000000000, 3.000000000000000000 ) ) ;
#71 = ORIENTED_EDGE ( 'NONE', *, *, #9, .F. ) ;
#72 = CC_DESIGN_PERSON_AND_ORGANIZATION_ASSIGNMENT ( #114, #4, ( #12 ) ) ;
#73 = DIRECTION ( 'NONE',  ( 1.000000000000000000, 0.0000000000000000000, -0.0000000000000000000 ) ) ;
#74 =( LENGTH_UNIT ( ) NAMED_UNIT ( * ) SI_UNIT ( .MILLI., .METRE. ) );
#75 = EDGE_CURVE ( 'NONE', #167, #66, #68, .T. ) ;
#76 = PLANE ( 'NONE',  #50 ) ;
#77 =( GEOMETRIC_REPRESENTATION_CONTEXT ( 3 ) GLOBAL_UNCERTAINTY_ASSIGNED_CONTEXT ( ( #26 ) ) GLOBAL_UNIT_ASSIGNED_CONTEXT ( ( #74, #146, #143 ) ) REPRESENTATION_CONTEXT ( 'NONE', 'WORKASPACE' ) );
#78 = CALENDAR_DATE ( 2020, 15, 12 ) ;
#79 = LOCAL_TIME ( 16, 27, 8.000000000000000000, #95 ) ;
#80 = SECURITY_CLASSIFICATION ( '', '', #105 ) ;
#81 = CALENDAR_DATE ( 2020, 15, 12 ) ;
#82 = ORIENTED_EDGE ( 'NONE', *, *, #67, .F. ) ;
#83 = EDGE_CURVE ( 'NONE', #66, #167, #112, .T. ) ;
#84 = APPROVAL_PERSON_ORGANIZATION ( #121, #138, #117 ) ;
#85 = DIRECTION ( 'NONE',  ( 0.0000000000000000000, 0.0000000000000000000, 1.000000000000000000 ) ) ;
#86 = CARTESIAN_POINT ( 'NONE',  ( 0.0000000000000000000, 0.0000000000000000000, 3.000000000000000000 ) ) ;
#87 = DATE_AND_TIME ( #162, #79 ) ;
#88 = VERTEX_POINT ( 'NONE', #90 ) ;
#89 = APPLICATION_PROTOCOL_DEFINITION ( 'international standard', 'config_control_design', 1994, #92 ) ;
#90 = CARTESIAN_POINT ( 'NONE',  ( -25.39999999999999858, 0.0000000000000000000, 0.0000000000000000000 ) ) ;
#91 = PERSON_AND_ORGANIZATION_ROLE ( 'classification_officer' ) ;
#92 = APPLICATION_CONTEXT ( 'configuration controlled 3d designs of mechanical parts and assemblies' ) ;
#93 = APPLICATION_PROTOCOL_DEFINITION ( 'international standard', 'config_control_design', 1994, #20 ) ;
#94 = CC_DESIGN_PERSON_AND_ORGANIZATION_ASSIGNMENT ( #52, #91, ( #80 ) ) ;
#95 = COORDINATED_UNIVERSAL_TIME_OFFSET ( 5, 0, .BEHIND. ) ;
#96 = ORIENTED_EDGE ( 'NONE', *, *, #75, .T. ) ;
#97 = PRODUCT_DEFINITION_SHAPE ( 'NONE', 'NONE',  #113 ) ;
#98 = MANIFOLD_SOLID_BREP ( 'Boss-Extrude1', #19 ) ;
#99 = PRODUCT_RELATED_PRODUCT_CATEGORY ( 'detail', '', ( #131 ) ) ;
#100 = CIRCLE ( 'NONE', #39, 25.39999999999999858 ) ;
#101 = CALENDAR_DATE ( 2020, 15, 12 ) ;
#102 = DATE_AND_TIME ( #107, #166 ) ;
#103 = DIRECTION ( 'NONE',  ( 0.0000000000000000000, 0.0000000000000000000, 1.000000000000000000 ) ) ;
#104 = PERSON_AND_ORGANIZATION_ROLE ( 'creator' ) ;
#105 = SECURITY_CLASSIFICATION_LEVEL ( 'unclassified' ) ;
#106 = CARTESIAN_POINT ( 'NONE',  ( 0.0000000000000000000, 0.0000000000000000000, 0.0000000000000000000 ) ) ;
#107 = CALENDAR_DATE ( 2020, 15, 12 ) ;
#108 = CIRCLE ( 'NONE', #17, 25.39999999999999858 ) ;
#109 = ADVANCED_BREP_SHAPE_REPRESENTATION ( 'ISP Flat Parts_16803', ( #98, #127 ), #77 ) ;
#110 = VECTOR ( 'NONE', #6, 1000.000000000000000 ) ;
#111 = CC_DESIGN_DATE_AND_TIME_ASSIGNMENT ( #40, #44, ( #80 ) ) ;
#112 = CIRCLE ( 'NONE', #11, 25.39999999999999858 ) ;
#113 = PRODUCT_DEFINITION ( 'UNKNOWN', '', #12, #34 ) ;
#114 = PERSON_AND_ORGANIZATION ( #119, #10 ) ;
#115 = EDGE_LOOP ( 'NONE', ( #82, #145, #175, #27 ) ) ;
#116 = DATE_TIME_ROLE ( 'creation_date' ) ;
#117 = APPROVAL_ROLE ( '' ) ;
#118 = DIRECTION ( 'NONE',  ( 0.0000000000000000000, 0.0000000000000000000, 1.000000000000000000 ) ) ;
#119 = PERSON ( 'UNSPECIFIED', 'UNSPECIFIED', 'UNSPECIFIED', ('UNSPECIFIED'), ('UNSPECIFIED'), ('UNSPECIFIED') ) ;
#120 = APPROVAL_PERSON_ORGANIZATION ( #124, #24, #144 ) ;
#121 = PERSON_AND_ORGANIZATION ( #119, #10 ) ;
#122 = CC_DESIGN_PERSON_AND_ORGANIZATION_ASSIGNMENT ( #2, #169, ( #131 ) ) ;
#123 = FACE_OUTER_BOUND ( 'NONE', #23, .T. ) ;
#124 = PERSON_AND_ORGANIZATION ( #119, #10 ) ;
#125 = CARTESIAN_POINT ( 'NONE',  ( 25.39999999999999858, 3.110602869834276865E-15, 3.000000000000000000 ) ) ;
#126 = CARTESIAN_POINT ( 'NONE',  ( 25.39999999999999858, 3.110602869834276865E-15, 0.0000000000000000000 ) ) ;
#127 = AXIS2_PLACEMENT_3D ( 'NONE', #106, #130, #147 ) ;
#128 = DIRECTION ( 'NONE',  ( 0.0000000000000000000, 0.0000000000000000000, 1.000000000000000000 ) ) ;
#129 = CARTESIAN_POINT ( 'NONE',  ( -25.39999999999999858, 0.0000000000000000000, 3.000000000000000000 ) ) ;
#130 = DIRECTION ( 'NONE',  ( 0.0000000000000000000, 0.0000000000000000000, 1.000000000000000000 ) ) ;
#131 = PRODUCT ( 'ISP Flat Parts_16803', 'ISP Flat Parts_16803', '', ( #159 ) ) ;
#132 = CC_DESIGN_APPROVAL ( #154, ( #113 ) ) ;
#133 = ADVANCED_FACE ( 'NONE', ( #123 ), #76, .T. ) ;
#134 = PERSON_AND_ORGANIZATION ( #119, #10 ) ;
#135 = CYLINDRICAL_SURFACE ( 'NONE', #22, 25.39999999999999858 ) ;
#136 = AXIS2_PLACEMENT_3D ( 'NONE', #61, #118, #45 ) ;
#137 = ORIENTED_EDGE ( 'NONE', *, *, #67, .T. ) ;
#138 = APPROVAL ( #16, 'UNSPECIFIED' ) ;
#139 = DIRECTION ( 'NONE',  ( -1.000000000000000000, 0.0000000000000000000, 0.0000000000000000000 ) ) ;
#140 = CC_DESIGN_PERSON_AND_ORGANIZATION_ASSIGNMENT ( #158, #31, ( #113 ) ) ;
#141 = COORDINATED_UNIVERSAL_TIME_OFFSET ( 5, 0, .BEHIND. ) ;
#142 = ORIENTED_EDGE ( 'NONE', *, *, #9, .T. ) ;
#143 =( NAMED_UNIT ( * ) SI_UNIT ( $, .STERADIAN. ) SOLID_ANGLE_UNIT ( ) );
#144 = APPROVAL_ROLE ( '' ) ;
#145 = ORIENTED_EDGE ( 'NONE', *, *, #75, .F. ) ;
#146 =( NAMED_UNIT ( * ) PLANE_ANGLE_UNIT ( ) SI_UNIT ( $, .RADIAN. ) );
#147 = DIRECTION ( 'NONE',  ( 1.000000000000000000, 0.0000000000000000000, 0.0000000000000000000 ) ) ;
#148 = CC_DESIGN_APPROVAL ( #138, ( #80 ) ) ;
#149 = CC_DESIGN_DATE_AND_TIME_ASSIGNMENT ( #155, #116, ( #113 ) ) ;
#150 = LOCAL_TIME ( 16, 27, 8.000000000000000000, #174 ) ;
#151 = ORIENTED_EDGE ( 'NONE', *, *, #83, .T. ) ;
#152 = CARTESIAN_POINT ( 'NONE',  ( 0.0000000000000000000, 0.0000000000000000000, 0.0000000000000000000 ) ) ;
#153 = DIRECTION ( 'NONE',  ( 1.000000000000000000, 0.0000000000000000000, 0.0000000000000000000 ) ) ;
#154 = APPROVAL ( #170, 'UNSPECIFIED' ) ;
#155 = DATE_AND_TIME ( #81, #150 ) ;
#156 = DIRECTION ( 'NONE',  ( 1.000000000000000000, 0.0000000000000000000, 0.0000000000000000000 ) ) ;
#157 = DIRECTION ( 'NONE',  ( 0.0000000000000000000, 0.0000000000000000000, 1.000000000000000000 ) ) ;
#158 = PERSON_AND_ORGANIZATION ( #119, #10 ) ;
#159 = MECHANICAL_CONTEXT ( 'NONE', #92, 'mechanical' ) ;
#160 = EDGE_LOOP ( 'NONE', ( #41, #137, #142, #37 ) ) ;
#161 = EDGE_CURVE ( 'NONE', #167, #88, #38, .T. ) ;
#162 = CALENDAR_DATE ( 2020, 15, 12 ) ;
#163 = LOCAL_TIME ( 16, 27, 8.000000000000000000, #21 ) ;
#164 = FACE_OUTER_BOUND ( 'NONE', #115, .T. ) ;
#165 = APPROVAL_DATE_TIME ( #63, #138 ) ;
#166 = LOCAL_TIME ( 16, 27, 8.000000000000000000, #141 ) ;
#167 = VERTEX_POINT ( 'NONE', #60 ) ;
#168 = DIRECTION ( 'NONE',  ( -0.0000000000000000000, -0.0000000000000000000, -1.000000000000000000 ) ) ;
#169 = PERSON_AND_ORGANIZATION_ROLE ( 'design_owner' ) ;
#170 = APPROVAL_STATUS ( 'not_yet_approved' ) ;
#171 = CARTESIAN_POINT ( 'NONE',  ( 0.0000000000000000000, 0.0000000000000000000, 3.000000000000000000 ) ) ;
#172 = APPROVAL_STATUS ( 'not_yet_approved' ) ;
#173 = ADVANCED_FACE ( 'NONE', ( #1 ), #18, .F. ) ;
#174 = COORDINATED_UNIVERSAL_TIME_OFFSET ( 5, 0, .BEHIND. ) ;
#175 = ORIENTED_EDGE ( 'NONE', *, *, #161, .T. ) ;
ENDSEC;
END-ISO-10303-21;
