ISO-10303-21;
HEADER;
FILE_DESCRIPTION (( 'STEP AP214' ),
    '1' );
FILE_NAME ('3383-E0W.STEP',
    '2009-12-21T16:58:39',
    ( ' ' ),
    ( ' ' ),
    'SwSTEP 2.0',
    'SolidWorks 2009',
    '' );
FILE_SCHEMA (( 'AUTOMOTIVE_DESIGN' ));
ENDSEC;

DATA;
#1 = EDGE_CURVE ( 'NONE', #2, #4, #48, .T. ) ;
#2 = VERTEX_POINT ( 'NONE', #44 ) ;
#3 = ORIENTED_EDGE ( 'NONE', *, *, #1, .F. ) ;
#4 = VERTEX_POINT ( 'NONE', #43 ) ;
#5 = ORIENTED_EDGE ( 'NONE', *, *, #55, .F. ) ;
#6 = EDGE_CURVE ( 'NONE', #4, #25, #89, .T. ) ;
#7 = EDGE_LOOP ( 'NONE', ( #5, #8, #82, #83 ) ) ;
#8 = ORIENTED_EDGE ( 'NONE', *, *, #22, .T. ) ;
#9 = ORIENTED_EDGE ( 'NONE', *, *, #6, .F. ) ;
#10 = MANIFOLD_SOLID_BREP ( 'NONE', #34 ) ;
#11 = ORIENTED_EDGE ( 'NONE', *, *, #74, .T. ) ;
#12 = ORIENTED_EDGE ( 'NONE', *, *, #40, .T. ) ;
#13 = EDGE_LOOP ( 'NONE', ( #14, #12, #16, #11 ) ) ;
#14 = ORIENTED_EDGE ( 'NONE', *, *, #59, .F. ) ;
#15 = ORIENTED_EDGE ( 'NONE', *, *, #72, .F. ) ;
#16 = ORIENTED_EDGE ( 'NONE', *, *, #6, .T. ) ;
#17 = ORIENTED_EDGE ( 'NONE', *, *, #18, .T. ) ;
#18 = EDGE_CURVE ( 'NONE', #25, #75, #114, .T. ) ;
#19 = ADVANCED_FACE ( 'NONE', ( #99 ), #110, .T. ) ;
#20 = EDGE_LOOP ( 'NONE', ( #21, #24, #69, #71 ) ) ;
#21 = ORIENTED_EDGE ( 'NONE', *, *, #22, .F. ) ;
#22 = EDGE_CURVE ( 'NONE', #23, #29, #103, .T. ) ;
#23 = VERTEX_POINT ( 'NONE', #108 ) ;
#24 = ORIENTED_EDGE ( 'NONE', *, *, #55, .T. ) ;
#25 = VERTEX_POINT ( 'NONE', #107 ) ;
#26 = EDGE_LOOP ( 'NONE', ( #27, #77, #54, #9, #3, #30 ) ) ;
#27 = ORIENTED_EDGE ( 'NONE', *, *, #28, .T. ) ;
#28 = EDGE_CURVE ( 'NONE', #29, #76, #133, .T. ) ;
#29 = VERTEX_POINT ( 'NONE', #134 ) ;
#30 = ORIENTED_EDGE ( 'NONE', *, *, #31, .T. ) ;
#31 = EDGE_CURVE ( 'NONE', #2, #29, #96, .T. ) ;
#32 = ADVANCED_FACE ( 'NONE', ( #97 ), #146, .T. ) ;
#33 = ORIENTED_EDGE ( 'NONE', *, *, #78, .F. ) ;
#34 = CLOSED_SHELL ( 'NONE', ( #41, #19, #32, #52, #79, #35 ) ) ;
#35 = ADVANCED_FACE ( 'NONE', ( #186 ), #195, .T. ) ;
#36 = ORIENTED_EDGE ( 'NONE', *, *, #1, .T. ) ;
#37 = ORIENTED_EDGE ( 'NONE', *, *, #70, .T. ) ;
#38 = ORIENTED_EDGE ( 'NONE', *, *, #84, .T. ) ;
#39 = ORIENTED_EDGE ( 'NONE', *, *, #40, .F. ) ;
#40 = EDGE_CURVE ( 'NONE', #57, #4, #197, .T. ) ;
#41 = ADVANCED_FACE ( 'NONE', ( #178 ), #212, .T. ) ;
#42 = EDGE_LOOP ( 'NONE', ( #81, #58, #73, #17 ) ) ;
#43 = CARTESIAN_POINT ( 'NONE',  ( 25.40000000000000900, -6.274098110942214900E-015, 1.501456267711753800 ) ) ;
#44 = CARTESIAN_POINT ( 'NONE',  ( 25.40000000000000200, -6.274098110942214900E-015, -1.501456267711706900 ) ) ;
#45 = DIRECTION ( 'NONE',  ( -0.0000000000000000000, -0.0000000000000000000, 1.000000000000000000 ) ) ;
#46 = VECTOR ( 'NONE', #45, 1000.000000000000000 ) ;
#47 = CARTESIAN_POINT ( 'NONE',  ( 25.40000000000000600, -6.274098110942214900E-015, 6.491000388932064000 ) ) ;
#48 = LINE ( 'NONE', #47, #46 ) ;
#49 =( LENGTH_UNIT ( ) NAMED_UNIT ( * ) SI_UNIT ( .MILLI., .METRE. ) );
#50 = MECHANICAL_DESIGN_GEOMETRIC_PRESENTATION_REPRESENTATION (  '', ( #61 ), #135 ) ;
#51 = PRESENTATION_LAYER_ASSIGNMENT (  '', '', ( #61 ) ) ;
#52 = ADVANCED_FACE ( 'NONE', ( #216 ), #235, .T. ) ;
#53 = UNCERTAINTY_MEASURE_WITH_UNIT (LENGTH_MEASURE( 1.000000000000000100E-005 ), #49, 'distance_accuracy_value', 'NONE');
#54 = ORIENTED_EDGE ( 'NONE', *, *, #18, .F. ) ;
#55 = EDGE_CURVE ( 'NONE', #23, #56, #224, .T. ) ;
#56 = VERTEX_POINT ( 'NONE', #238 ) ;
#57 = VERTEX_POINT ( 'NONE', #236 ) ;
#58 = ORIENTED_EDGE ( 'NONE', *, *, #59, .T. ) ;
#59 = EDGE_CURVE ( 'NONE', #57, #60, #231, .T. ) ;
#60 = VERTEX_POINT ( 'NONE', #258 ) ;
#61 = STYLED_ITEM ( 'NONE', ( #62 ), #10 ) ;
#62 = PRESENTATION_STYLE_ASSIGNMENT (( #63 ) ) ;
#63 = SURFACE_STYLE_USAGE ( .BOTH. , #64 ) ;
#64 = SURFACE_SIDE_STYLE ('',( #65 ) ) ;
#65 = SURFACE_STYLE_FILL_AREA ( #66 ) ;
#66 = FILL_AREA_STYLE ('',( #85 ) ) ;
#67 = CARTESIAN_POINT ( 'NONE',  ( 0.0000000000000000000, -6.274098110942214900E-015, 1.501456267711753800 ) ) ;
#68 = COLOUR_RGB ( '',0.7960784313725489700, 0.8235294117647058400, 0.9372549019607843100 ) ;
#69 = ORIENTED_EDGE ( 'NONE', *, *, #70, .F. ) ;
#70 = EDGE_CURVE ( 'NONE', #76, #56, #253, .T. ) ;
#71 = ORIENTED_EDGE ( 'NONE', *, *, #28, .F. ) ;
#72 = EDGE_CURVE ( 'NONE', #75, #57, #239, .T. ) ;
#73 = ORIENTED_EDGE ( 'NONE', *, *, #74, .F. ) ;
#74 = EDGE_CURVE ( 'NONE', #25, #60, #271, .T. ) ;
#75 = VERTEX_POINT ( 'NONE', #267 ) ;
#76 = VERTEX_POINT ( 'NONE', #266 ) ;
#77 = ORIENTED_EDGE ( 'NONE', *, *, #78, .T. ) ;
#78 = EDGE_CURVE ( 'NONE', #76, #75, #264, .T. ) ;
#79 = ADVANCED_FACE ( 'NONE', ( #260 ), #310, .T. ) ;
#80 = EDGE_LOOP ( 'NONE', ( #33, #37, #38, #36, #39, #15 ) ) ;
#81 = ORIENTED_EDGE ( 'NONE', *, *, #72, .T. ) ;
#82 = ORIENTED_EDGE ( 'NONE', *, *, #31, .F. ) ;
#83 = ORIENTED_EDGE ( 'NONE', *, *, #84, .F. ) ;
#84 = EDGE_CURVE ( 'NONE', #56, #2, #274, .T. ) ;
#85 = FILL_AREA_STYLE_COLOUR ( '', #68 ) ;
#86 = DIRECTION ( 'NONE',  ( 1.000000000000000000, 0.0000000000000000000, 0.0000000000000000000 ) ) ;
#87 = DIRECTION ( 'NONE',  ( -0.0000000000000000000, -0.0000000000000000000, 1.000000000000000000 ) ) ;
#88 = AXIS2_PLACEMENT_3D ( 'NONE', #67, #87, #86 ) ;
#89 = CIRCLE ( 'NONE', #88, 25.40000000000000900 ) ;
#90 =( NAMED_UNIT ( * ) SI_UNIT ( $, .STERADIAN. ) SOLID_ANGLE_UNIT ( ) );
#91 =( NAMED_UNIT ( * ) PLANE_ANGLE_UNIT ( ) SI_UNIT ( $, .RADIAN. ) );
#92 =( GEOMETRIC_REPRESENTATION_CONTEXT ( 3 ) GLOBAL_UNCERTAINTY_ASSIGNED_CONTEXT ( ( #104 ) ) GLOBAL_UNIT_ASSIGNED_CONTEXT ( ( #93, #106, #105 ) ) REPRESENTATION_CONTEXT ( 'NONE', 'WORKASPACE' ) );
#93 =( LENGTH_UNIT ( ) NAMED_UNIT ( * ) SI_UNIT ( .MILLI., .METRE. ) );
#94 = CARTESIAN_POINT ( 'NONE',  ( 0.0000000000000000000, -6.274098110942214900E-015, -1.501456267711706900 ) ) ;
#95 = AXIS2_PLACEMENT_3D ( 'NONE', #94, #124, #123 ) ;
#96 = CIRCLE ( 'NONE', #95, 25.40000000000000200 ) ;
#97 = FACE_OUTER_BOUND ( 'NONE', #20, .T. ) ;
#98 = CARTESIAN_POINT ( 'NONE',  ( 0.0000000000000000000, -6.274098110942214900E-015, 1.501456267711753800 ) ) ;
#99 = FACE_OUTER_BOUND ( 'NONE', #26, .T. ) ;
#100 = DIRECTION ( 'NONE',  ( 1.000000000000000000, 0.0000000000000000000, 0.0000000000000000000 ) ) ;
#101 = CARTESIAN_POINT ( 'NONE',  ( 0.0000000000000000000, -3.757645006163780900E-014, 305.6200000000000600 ) ) ;
#102 = AXIS2_PLACEMENT_3D ( 'NONE', #101, #100, #109 ) ;
#103 = CIRCLE ( 'NONE', #102, 308.1700000000000700 ) ;
#104 = UNCERTAINTY_MEASURE_WITH_UNIT (LENGTH_MEASURE( 1.000000000000000100E-005 ), #93, 'distance_accuracy_value', 'NONE');
#105 =( NAMED_UNIT ( * ) SI_UNIT ( $, .STERADIAN. ) SOLID_ANGLE_UNIT ( ) );
#106 =( NAMED_UNIT ( * ) PLANE_ANGLE_UNIT ( ) SI_UNIT ( $, .RADIAN. ) );
#107 = CARTESIAN_POINT ( 'NONE',  ( 0.0000000000000000000, 25.40000000000021500, 1.501456267711753800 ) ) ;
#108 = CARTESIAN_POINT ( 'NONE',  ( 0.0000000000000000000, -1.870710305876570800E-014, -2.549999999999996700 ) ) ;
#109 = DIRECTION ( 'NONE',  ( 0.0000000000000000000, 0.0000000000000000000, -1.000000000000000000 ) ) ;
#110 = CYLINDRICAL_SURFACE ( 'NONE', #128, 25.40000000000000600 ) ;
#111 = DIRECTION ( 'NONE',  ( 1.000000000000000000, 0.0000000000000000000, 0.0000000000000000000 ) ) ;
#112 = DIRECTION ( 'NONE',  ( -0.0000000000000000000, -0.0000000000000000000, 1.000000000000000000 ) ) ;
#113 = AXIS2_PLACEMENT_3D ( 'NONE', #98, #112, #111 ) ;
#114 = CIRCLE ( 'NONE', #113, 25.40000000000000900 ) ;
#115 = STYLED_ITEM ( 'NONE', ( #116 ), #32 ) ;
#116 = PRESENTATION_STYLE_ASSIGNMENT (( #117 ) ) ;
#117 = SURFACE_STYLE_USAGE ( .BOTH. , #118 ) ;
#118 = SURFACE_SIDE_STYLE ('',( #119 ) ) ;
#119 = SURFACE_STYLE_FILL_AREA ( #120 ) ;
#120 = FILL_AREA_STYLE ('',( #121 ) ) ;
#121 = FILL_AREA_STYLE_COLOUR ( '', #122 ) ;
#122 = COLOUR_RGB ( '',0.9568627450980391500, 0.9490196078431372100, 0.9607843137254902200 ) ;
#123 = DIRECTION ( 'NONE',  ( 1.000000000000000000, 0.0000000000000000000, 0.0000000000000000000 ) ) ;
#124 = DIRECTION ( 'NONE',  ( -0.0000000000000000000, -0.0000000000000000000, 1.000000000000000000 ) ) ;
#125 = DIRECTION ( 'NONE',  ( 1.000000000000000000, 0.0000000000000000000, 0.0000000000000000000 ) ) ;
#126 = DIRECTION ( 'NONE',  ( -0.0000000000000000000, -0.0000000000000000000, 1.000000000000000000 ) ) ;
#127 = CARTESIAN_POINT ( 'NONE',  ( 0.0000000000000000000, -6.274098110942214900E-015, 6.491000388932064000 ) ) ;
#128 = AXIS2_PLACEMENT_3D ( 'NONE', #127, #126, #125 ) ;
#129 = DIRECTION ( 'NONE',  ( 1.000000000000000000, 0.0000000000000000000, 0.0000000000000000000 ) ) ;
#130 = DIRECTION ( 'NONE',  ( -0.0000000000000000000, -0.0000000000000000000, 1.000000000000000000 ) ) ;
#131 = CARTESIAN_POINT ( 'NONE',  ( 0.0000000000000000000, -6.274098110942214900E-015, -1.501456267711706900 ) ) ;
#132 = AXIS2_PLACEMENT_3D ( 'NONE', #131, #130, #129 ) ;
#133 = CIRCLE ( 'NONE', #132, 25.40000000000000200 ) ;
#134 = CARTESIAN_POINT ( 'NONE',  ( 0.0000000000000000000, 25.40000000000044300, -1.501456267711702700 ) ) ;
#135 =( GEOMETRIC_REPRESENTATION_CONTEXT ( 3 ) GLOBAL_UNCERTAINTY_ASSIGNED_CONTEXT ( ( #53 ) ) GLOBAL_UNIT_ASSIGNED_CONTEXT ( ( #49, #91, #90 ) ) REPRESENTATION_CONTEXT ( 'NONE', 'WORKASPACE' ) );
#136 = MECHANICAL_DESIGN_GEOMETRIC_PRESENTATION_REPRESENTATION (  '', ( #138 ), #92 ) ;
#137 = PRESENTATION_LAYER_ASSIGNMENT (  '', '', ( #138 ) ) ;
#138 = STYLED_ITEM ( 'NONE', ( #139 ), #19 ) ;
#139 = PRESENTATION_STYLE_ASSIGNMENT (( #140 ) ) ;
#140 = SURFACE_STYLE_USAGE ( .BOTH. , #141 ) ;
#141 = SURFACE_SIDE_STYLE ('',( #142 ) ) ;
#142 = SURFACE_STYLE_FILL_AREA ( #143 ) ;
#143 = FILL_AREA_STYLE ('',( #144 ) ) ;
#144 = FILL_AREA_STYLE_COLOUR ( '', #145 ) ;
#145 = COLOUR_RGB ( '',0.9568627450980391500, 0.9490196078431372100, 0.9607843137254902200 ) ;
#146 = SPHERICAL_SURFACE ( 'NONE', #148, 308.1700000000000700 ) ;
#147 = CARTESIAN_POINT ( 'NONE',  ( 0.0000000000000000000, -3.757645006163780900E-014, 305.6200000000000600 ) ) ;
#148 = AXIS2_PLACEMENT_3D ( 'NONE', #147, #188, #187 ) ;
#149 = SURFACE_STYLE_FILL_AREA ( #150 ) ;
#150 = FILL_AREA_STYLE ('',( #151 ) ) ;
#151 = FILL_AREA_STYLE_COLOUR ( '', #185 ) ;
#152 = UNCERTAINTY_MEASURE_WITH_UNIT (LENGTH_MEASURE( 1.000000000000000100E-005 ), #174, 'distance_accuracy_value', 'NONE');
#153 =( NAMED_UNIT ( * ) SI_UNIT ( $, .STERADIAN. ) SOLID_ANGLE_UNIT ( ) );
#154 =( GEOMETRIC_REPRESENTATION_CONTEXT ( 3 ) GLOBAL_UNCERTAINTY_ASSIGNED_CONTEXT ( ( #152 ) ) GLOBAL_UNIT_ASSIGNED_CONTEXT ( ( #174, #196, #153 ) ) REPRESENTATION_CONTEXT ( 'NONE', 'WORKASPACE' ) );
#155 = PRESENTATION_LAYER_ASSIGNMENT (  '', '', ( #156 ) ) ;
#156 = STYLED_ITEM ( 'NONE', ( #157 ), #35 ) ;
#157 = PRESENTATION_STYLE_ASSIGNMENT (( #158 ) ) ;
#158 = SURFACE_STYLE_USAGE ( .BOTH. , #159 ) ;
#159 = SURFACE_SIDE_STYLE ('',( #149 ) ) ;
#160 =( NAMED_UNIT ( * ) PLANE_ANGLE_UNIT ( ) SI_UNIT ( $, .RADIAN. ) );
#161 =( NAMED_UNIT ( * ) SI_UNIT ( $, .STERADIAN. ) SOLID_ANGLE_UNIT ( ) );
#162 =( GEOMETRIC_REPRESENTATION_CONTEXT ( 3 ) GLOBAL_UNCERTAINTY_ASSIGNED_CONTEXT ( ( #173 ) ) GLOBAL_UNIT_ASSIGNED_CONTEXT ( ( #171, #172, #161 ) ) REPRESENTATION_CONTEXT ( 'NONE', 'WORKASPACE' ) );
#163 = MECHANICAL_DESIGN_GEOMETRIC_PRESENTATION_REPRESENTATION (  '', ( #115 ), #162 ) ;
#164 =( GEOMETRIC_REPRESENTATION_CONTEXT ( 3 ) GLOBAL_UNCERTAINTY_ASSIGNED_CONTEXT ( ( #193 ) ) GLOBAL_UNIT_ASSIGNED_CONTEXT ( ( #183, #160, #194 ) ) REPRESENTATION_CONTEXT ( 'NONE', 'WORKASPACE' ) );
#165 = PRESENTATION_LAYER_ASSIGNMENT (  '', '', ( #166 ) ) ;
#166 = STYLED_ITEM ( 'NONE', ( #167 ), #41 ) ;
#167 = PRESENTATION_STYLE_ASSIGNMENT (( #168 ) ) ;
#168 = SURFACE_STYLE_USAGE ( .BOTH. , #169 ) ;
#169 = SURFACE_SIDE_STYLE ('',( #170 ) ) ;
#170 = SURFACE_STYLE_FILL_AREA ( #198 ) ;
#171 =( LENGTH_UNIT ( ) NAMED_UNIT ( * ) SI_UNIT ( .MILLI., .METRE. ) );
#172 =( NAMED_UNIT ( * ) PLANE_ANGLE_UNIT ( ) SI_UNIT ( $, .RADIAN. ) );
#173 = UNCERTAINTY_MEASURE_WITH_UNIT (LENGTH_MEASURE( 1.000000000000000100E-005 ), #171, 'distance_accuracy_value', 'NONE');
#174 =( LENGTH_UNIT ( ) NAMED_UNIT ( * ) SI_UNIT ( .MILLI., .METRE. ) );
#175 = MECHANICAL_DESIGN_GEOMETRIC_PRESENTATION_REPRESENTATION (  '', ( #166 ), #154 ) ;
#176 = FILL_AREA_STYLE_COLOUR ( '', #177 ) ;
#177 = COLOUR_RGB ( '',0.9568627450980391500, 0.9490196078431372100, 0.9607843137254902200 ) ;
#178 = FACE_OUTER_BOUND ( 'NONE', #42, .T. ) ;
#179 = DIRECTION ( 'NONE',  ( 1.000000000000000000, 0.0000000000000000000, 0.0000000000000000000 ) ) ;
#180 = DIRECTION ( 'NONE',  ( -0.0000000000000000000, -0.0000000000000000000, 1.000000000000000000 ) ) ;
#181 = CARTESIAN_POINT ( 'NONE',  ( 0.0000000000000000000, -6.274098110942214900E-015, 1.501456267711753800 ) ) ;
#182 = AXIS2_PLACEMENT_3D ( 'NONE', #181, #180, #179 ) ;
#183 =( LENGTH_UNIT ( ) NAMED_UNIT ( * ) SI_UNIT ( .MILLI., .METRE. ) );
#184 = MECHANICAL_DESIGN_GEOMETRIC_PRESENTATION_REPRESENTATION (  '', ( #156 ), #164 ) ;
#185 = COLOUR_RGB ( '',0.9568627450980391500, 0.9490196078431372100, 0.9607843137254902200 ) ;
#186 = FACE_OUTER_BOUND ( 'NONE', #13, .T. ) ;
#187 = DIRECTION ( 'NONE',  ( 0.0000000000000000000, 1.000000000000000000, 0.0000000000000000000 ) ) ;
#188 = DIRECTION ( 'NONE',  ( -1.000000000000000000, 0.0000000000000000000, 0.0000000000000000000 ) ) ;
#189 = DIRECTION ( 'NONE',  ( -1.000000000000000000, 0.0000000000000000000, 0.0000000000000000000 ) ) ;
#190 = CARTESIAN_POINT ( 'NONE',  ( 0.0000000000000000000, 3.727886088944500900E-014, -305.6200000000000600 ) ) ;
#191 = AXIS2_PLACEMENT_3D ( 'NONE', #190, #189, #199 ) ;
#192 = PRESENTATION_LAYER_ASSIGNMENT (  '', '', ( #115 ) ) ;
#193 = UNCERTAINTY_MEASURE_WITH_UNIT (LENGTH_MEASURE( 1.000000000000000100E-005 ), #183, 'distance_accuracy_value', 'NONE');
#194 =( NAMED_UNIT ( * ) SI_UNIT ( $, .STERADIAN. ) SOLID_ANGLE_UNIT ( ) );
#195 = SPHERICAL_SURFACE ( 'NONE', #191, 308.1700000000000700 ) ;
#196 =( NAMED_UNIT ( * ) PLANE_ANGLE_UNIT ( ) SI_UNIT ( $, .RADIAN. ) );
#197 = CIRCLE ( 'NONE', #182, 25.40000000000000900 ) ;
#198 = FILL_AREA_STYLE ('',( #176 ) ) ;
#199 = DIRECTION ( 'NONE',  ( 0.0000000000000000000, 1.000000000000000000, 0.0000000000000000000 ) ) ;
#200 = CARTESIAN_POINT ( 'NONE',  ( 0.0000000000000000000, 3.727886088944500900E-014, -305.6200000000000600 ) ) ;
#201 = AXIS2_PLACEMENT_3D ( 'NONE', #200, #217, #214 ) ;
#202 =( NAMED_UNIT ( * ) PLANE_ANGLE_UNIT ( ) SI_UNIT ( $, .RADIAN. ) );
#203 =( LENGTH_UNIT ( ) NAMED_UNIT ( * ) SI_UNIT ( .MILLI., .METRE. ) );
#204 = MECHANICAL_DESIGN_GEOMETRIC_PRESENTATION_REPRESENTATION (  '', ( #206 ), #234 ) ;
#205 = PRESENTATION_LAYER_ASSIGNMENT (  '', '', ( #206 ) ) ;
#206 = STYLED_ITEM ( 'NONE', ( #207 ), #52 ) ;
#207 = PRESENTATION_STYLE_ASSIGNMENT (( #208 ) ) ;
#208 = SURFACE_STYLE_USAGE ( .BOTH. , #209 ) ;
#209 = SURFACE_SIDE_STYLE ('',( #210 ) ) ;
#210 = SURFACE_STYLE_FILL_AREA ( #211 ) ;
#211 = FILL_AREA_STYLE ('',( #213 ) ) ;
#212 = SPHERICAL_SURFACE ( 'NONE', #201, 308.1700000000000700 ) ;
#213 = FILL_AREA_STYLE_COLOUR ( '', #215 ) ;
#214 = DIRECTION ( 'NONE',  ( 0.0000000000000000000, 1.000000000000000000, 0.0000000000000000000 ) ) ;
#215 = COLOUR_RGB ( '',0.9568627450980391500, 0.9490196078431372100, 0.9607843137254902200 ) ;
#216 = FACE_OUTER_BOUND ( 'NONE', #7, .T. ) ;
#217 = DIRECTION ( 'NONE',  ( -1.000000000000000000, 0.0000000000000000000, 0.0000000000000000000 ) ) ;
#218 = UNCERTAINTY_MEASURE_WITH_UNIT (LENGTH_MEASURE( 1.000000000000000100E-005 ), #203, 'distance_accuracy_value', 'NONE');
#219 =( NAMED_UNIT ( * ) SI_UNIT ( $, .STERADIAN. ) SOLID_ANGLE_UNIT ( ) );
#220 = DIRECTION ( 'NONE',  ( -1.224606353822377300E-016, -1.000000000000000000, 0.0000000000000000000 ) ) ;
#221 = DIRECTION ( 'NONE',  ( -1.000000000000000000, 1.224606353822377300E-016, 0.0000000000000000000 ) ) ;
#222 = CARTESIAN_POINT ( 'NONE',  ( 0.0000000000000000000, -3.757645006163780900E-014, 305.6200000000000600 ) ) ;
#223 = AXIS2_PLACEMENT_3D ( 'NONE', #222, #221, #220 ) ;
#224 = CIRCLE ( 'NONE', #223, 308.1700000000000700 ) ;
#225 = AXIS2_PLACEMENT_3D ( 'NONE', #237, #227, #226 ) ;
#226 = DIRECTION ( 'NONE',  ( 0.0000000000000000000, 1.000000000000000000, 0.0000000000000000000 ) ) ;
#227 = DIRECTION ( 'NONE',  ( -1.000000000000000000, 0.0000000000000000000, 0.0000000000000000000 ) ) ;
#228 = DIRECTION ( 'NONE',  ( -1.224606353822377300E-016, -1.000000000000000000, 0.0000000000000000000 ) ) ;
#229 = DIRECTION ( 'NONE',  ( -1.000000000000000000, 1.224606353822377300E-016, 0.0000000000000000000 ) ) ;
#230 = AXIS2_PLACEMENT_3D ( 'NONE', #233, #229, #228 ) ;
#231 = CIRCLE ( 'NONE', #230, 308.1700000000000700 ) ;
#232 =( LENGTH_UNIT ( ) NAMED_UNIT ( * ) SI_UNIT ( .MILLI., .METRE. ) );
#233 = CARTESIAN_POINT ( 'NONE',  ( 0.0000000000000000000, 3.727886088944500900E-014, -305.6200000000000600 ) ) ;
#234 =( GEOMETRIC_REPRESENTATION_CONTEXT ( 3 ) GLOBAL_UNCERTAINTY_ASSIGNED_CONTEXT ( ( #218 ) ) GLOBAL_UNIT_ASSIGNED_CONTEXT ( ( #203, #202, #219 ) ) REPRESENTATION_CONTEXT ( 'NONE', 'WORKASPACE' ) );
#235 = SPHERICAL_SURFACE ( 'NONE', #225, 308.1700000000000700 ) ;
#236 = CARTESIAN_POINT ( 'NONE',  ( -3.110500138708864600E-015, -25.40000000000018000, 1.501456267711753800 ) ) ;
#237 = CARTESIAN_POINT ( 'NONE',  ( 0.0000000000000000000, -3.757645006163780900E-014, 305.6200000000000600 ) ) ;
#238 = CARTESIAN_POINT ( 'NONE',  ( -3.110500138708893400E-015, -25.40000000000048900, -1.501456267711702700 ) ) ;
#239 = CIRCLE ( 'NONE', #257, 25.40000000000000900 ) ;
#240 = CARTESIAN_POINT ( 'NONE',  ( 0.0000000000000000000, 3.727886088944500900E-014, -305.6200000000000600 ) ) ;
#241 = MECHANICAL_DESIGN_GEOMETRIC_PRESENTATION_REPRESENTATION (  '', ( #243 ), #277 ) ;
#242 = PRESENTATION_LAYER_ASSIGNMENT (  '', '', ( #243 ) ) ;
#243 = STYLED_ITEM ( 'NONE', ( #244 ), #79 ) ;
#244 = PRESENTATION_STYLE_ASSIGNMENT (( #245 ) ) ;
#245 = SURFACE_STYLE_USAGE ( .BOTH. , #246 ) ;
#246 = SURFACE_SIDE_STYLE ('',( #247 ) ) ;
#247 = SURFACE_STYLE_FILL_AREA ( #248 ) ;
#248 = FILL_AREA_STYLE ('',( #265 ) ) ;
#249 = COLOUR_RGB ( '',0.9568627450980391500, 0.9490196078431372100, 0.9607843137254902200 ) ;
#250 = DIRECTION ( 'NONE',  ( -0.0000000000000000000, -0.0000000000000000000, 1.000000000000000000 ) ) ;
#251 = CARTESIAN_POINT ( 'NONE',  ( 0.0000000000000000000, -6.274098110942214900E-015, -1.501456267711706900 ) ) ;
#252 = AXIS2_PLACEMENT_3D ( 'NONE', #251, #250, #259 ) ;
#253 = CIRCLE ( 'NONE', #252, 25.40000000000000200 ) ;
#254 = DIRECTION ( 'NONE',  ( 1.000000000000000000, 0.0000000000000000000, 0.0000000000000000000 ) ) ;
#255 = DIRECTION ( 'NONE',  ( -0.0000000000000000000, -0.0000000000000000000, 1.000000000000000000 ) ) ;
#256 = CARTESIAN_POINT ( 'NONE',  ( 0.0000000000000000000, -6.274098110942214900E-015, 1.501456267711753800 ) ) ;
#257 = AXIS2_PLACEMENT_3D ( 'NONE', #256, #255, #254 ) ;
#258 = CARTESIAN_POINT ( 'NONE',  ( 0.0000000000000000000, 5.614820789231710400E-014, 2.549999999999996700 ) ) ;
#259 = DIRECTION ( 'NONE',  ( 1.000000000000000000, 0.0000000000000000000, 0.0000000000000000000 ) ) ;
#260 = FACE_OUTER_BOUND ( 'NONE', #80, .T. ) ;
#261 = DIRECTION ( 'NONE',  ( -0.0000000000000000000, -0.0000000000000000000, 1.000000000000000000 ) ) ;
#262 = VECTOR ( 'NONE', #261, 1000.000000000000000 ) ;
#263 = CARTESIAN_POINT ( 'NONE',  ( -25.40000000000000600, -3.163597972233376000E-015, 6.491000388932064000 ) ) ;
#264 = LINE ( 'NONE', #263, #262 ) ;
#265 = FILL_AREA_STYLE_COLOUR ( '', #249 ) ;
#266 = CARTESIAN_POINT ( 'NONE',  ( -25.40000000000000200, -3.163597972233376400E-015, -1.501456267711706900 ) ) ;
#267 = CARTESIAN_POINT ( 'NONE',  ( -25.40000000000001300, -3.163597972233375600E-015, 1.501456267711753800 ) ) ;
#268 = DIRECTION ( 'NONE',  ( 0.0000000000000000000, 0.0000000000000000000, -1.000000000000000000 ) ) ;
#269 = DIRECTION ( 'NONE',  ( 1.000000000000000000, 0.0000000000000000000, 0.0000000000000000000 ) ) ;
#270 = AXIS2_PLACEMENT_3D ( 'NONE', #240, #269, #268 ) ;
#271 = CIRCLE ( 'NONE', #270, 308.1700000000000200 ) ;
#272 = CARTESIAN_POINT ( 'NONE',  ( 0.0000000000000000000, -6.274098110942214900E-015, -1.501456267711706900 ) ) ;
#273 = AXIS2_PLACEMENT_3D ( 'NONE', #272, #280, #279 ) ;
#274 = CIRCLE ( 'NONE', #273, 25.40000000000000200 ) ;
#275 =( NAMED_UNIT ( * ) PLANE_ANGLE_UNIT ( ) SI_UNIT ( $, .RADIAN. ) );
#276 =( LENGTH_UNIT ( ) NAMED_UNIT ( * ) SI_UNIT ( .MILLI., .METRE. ) );
#277 =( GEOMETRIC_REPRESENTATION_CONTEXT ( 3 ) GLOBAL_UNCERTAINTY_ASSIGNED_CONTEXT ( ( #307 ) ) GLOBAL_UNIT_ASSIGNED_CONTEXT ( ( #232, #317, #304 ) ) REPRESENTATION_CONTEXT ( 'NONE', 'WORKASPACE' ) );
#278 = AXIS2_PLACEMENT_3D ( 'NONE', #320, #319, #318 ) ;
#279 = DIRECTION ( 'NONE',  ( 1.000000000000000000, 0.0000000000000000000, 0.0000000000000000000 ) ) ;
#280 = DIRECTION ( 'NONE',  ( -0.0000000000000000000, -0.0000000000000000000, 1.000000000000000000 ) ) ;
#281 = UNCERTAINTY_MEASURE_WITH_UNIT (LENGTH_MEASURE( 1.000000000000000100E-005 ), #276, 'distance_accuracy_value', 'NONE');
#282 =( NAMED_UNIT ( * ) SI_UNIT ( $, .STERADIAN. ) SOLID_ANGLE_UNIT ( ) );
#283 =( GEOMETRIC_REPRESENTATION_CONTEXT ( 3 ) GLOBAL_UNCERTAINTY_ASSIGNED_CONTEXT ( ( #281 ) ) GLOBAL_UNIT_ASSIGNED_CONTEXT ( ( #276, #275, #282 ) ) REPRESENTATION_CONTEXT ( 'NONE', 'WORKASPACE' ) );
#284 = MECHANICAL_DESIGN_GEOMETRIC_PRESENTATION_REPRESENTATION (  '', ( #286 ), #321 ) ;
#285 = PRESENTATION_LAYER_ASSIGNMENT (  '', '', ( #286 ) ) ;
#286 = STYLED_ITEM ( 'NONE', ( #287 ), #316 ) ;
#287 = PRESENTATION_STYLE_ASSIGNMENT (( #288 ) ) ;
#288 = SURFACE_STYLE_USAGE ( .BOTH. , #289 ) ;
#289 = SURFACE_SIDE_STYLE ('',( #290 ) ) ;
#290 = SURFACE_STYLE_FILL_AREA ( #291 ) ;
#291 = FILL_AREA_STYLE ('',( #292 ) ) ;
#292 = FILL_AREA_STYLE_COLOUR ( '', #293 ) ;
#293 = COLOUR_RGB ( '',0.7960784313725489700, 0.8235294117647058400, 0.9372549019607843100 ) ;
#294 = SHAPE_DEFINITION_REPRESENTATION ( #311, #316 ) ;
#295 = PRODUCT_RELATED_PRODUCT_CATEGORY ( 'part', '', ( #301 ) ) ;
#296 = PRODUCT_DEFINITION_FORMATION_WITH_SPECIFIED_SOURCE ( 'ANY', '', #301, .NOT_KNOWN. ) ;
#297 = PRODUCT_DEFINITION ( 'UNKNOWN', '', #296, #298 ) ;
#298 = PRODUCT_DEFINITION_CONTEXT ( 'detailed design', #300, 'design' ) ;
#299 = APPLICATION_PROTOCOL_DEFINITION ( 'draft international standard', 'automotive_design', 1998, #300 ) ;
#300 = APPLICATION_CONTEXT ( 'automotive_design' ) ;
#301 = PRODUCT ( '3383-E0W', '3383-E0W', '', ( #302 ) ) ;
#302 = PRODUCT_CONTEXT ( 'NONE', #315, 'mechanical' ) ;
#303 = APPLICATION_PROTOCOL_DEFINITION ( 'draft international standard', 'automotive_design', 1998, #315 ) ;
#304 =( NAMED_UNIT ( * ) SI_UNIT ( $, .STERADIAN. ) SOLID_ANGLE_UNIT ( ) );
#305 = CARTESIAN_POINT ( 'NONE',  ( 0.0000000000000000000, -6.274098110942214900E-015, 6.491000388932064000 ) ) ;
#306 = AXIS2_PLACEMENT_3D ( 'NONE', #305, #309, #308 ) ;
#307 = UNCERTAINTY_MEASURE_WITH_UNIT (LENGTH_MEASURE( 1.000000000000000100E-005 ), #232, 'distance_accuracy_value', 'NONE');
#308 = DIRECTION ( 'NONE',  ( 1.000000000000000000, 0.0000000000000000000, 0.0000000000000000000 ) ) ;
#309 = DIRECTION ( 'NONE',  ( -0.0000000000000000000, -0.0000000000000000000, 1.000000000000000000 ) ) ;
#310 = CYLINDRICAL_SURFACE ( 'NONE', #306, 25.40000000000000600 ) ;
#311 = PRODUCT_DEFINITION_SHAPE ( 'NONE', 'NONE',  #297 ) ;
#312 =( NAMED_UNIT ( * ) SI_UNIT ( $, .STERADIAN. ) SOLID_ANGLE_UNIT ( ) );
#313 =( NAMED_UNIT ( * ) PLANE_ANGLE_UNIT ( ) SI_UNIT ( $, .RADIAN. ) );
#314 =( LENGTH_UNIT ( ) NAMED_UNIT ( * ) SI_UNIT ( .MILLI., .METRE. ) );
#315 = APPLICATION_CONTEXT ( 'automotive_design' ) ;
#316 = ADVANCED_BREP_SHAPE_REPRESENTATION ( '3383-E0W', ( #10, #278 ), #283 ) ;
#317 =( NAMED_UNIT ( * ) PLANE_ANGLE_UNIT ( ) SI_UNIT ( $, .RADIAN. ) );
#318 = DIRECTION ( 'NONE',  ( 1.000000000000000000, 0.0000000000000000000, 0.0000000000000000000 ) ) ;
#319 = DIRECTION ( 'NONE',  ( 0.0000000000000000000, 0.0000000000000000000, 1.000000000000000000 ) ) ;
#320 = CARTESIAN_POINT ( 'NONE',  ( 0.0000000000000000000, 0.0000000000000000000, 0.0000000000000000000 ) ) ;
#321 =( GEOMETRIC_REPRESENTATION_CONTEXT ( 3 ) GLOBAL_UNCERTAINTY_ASSIGNED_CONTEXT ( ( #322 ) ) GLOBAL_UNIT_ASSIGNED_CONTEXT ( ( #314, #313, #312 ) ) REPRESENTATION_CONTEXT ( 'NONE', 'WORKASPACE' ) );
#322 = UNCERTAINTY_MEASURE_WITH_UNIT (LENGTH_MEASURE( 1.000000000000000100E-005 ), #314, 'distance_accuracy_value', 'NONE');
ENDSEC;
END-ISO-10303-21;
