ISO-10303-21;
HEADER;
FILE_DESCRIPTION (( 'STEP AP203' ),
    '1' );
FILE_NAME ('Web Model Lightsmyth Gratings_16863.step',
    '2021-03-11T20:24:14',
    ( '' ),
    ( '' ),
    'SwSTEP 2.0',
    'SolidWorks 2018',
    '' );
FILE_SCHEMA (( 'CONFIG_CONTROL_DESIGN' ));
ENDSEC;

DATA;
#1 = CC_DESIGN_PERSON_AND_ORGANIZATION_ASSIGNMENT ( #38, #55, ( #104 ) ) ;
#2 = VECTOR ( 'NONE', #232, 1000.000000000000000 ) ;
#3 = ORIENTED_EDGE ( 'NONE', *, *, #103, .F. ) ;
#4 = PERSON_AND_ORGANIZATION_ROLE ( 'classification_officer' ) ;
#5 = ORIENTED_EDGE ( 'NONE', *, *, #115, .T. ) ;
#6 = APPROVAL ( #120, 'UNSPECIFIED' ) ;
#7 = CC_DESIGN_APPROVAL ( #137, ( #201 ) ) ;
#8 = ORIENTED_EDGE ( 'NONE', *, *, #90, .T. ) ;
#9 = DIRECTION ( 'NONE',  ( 0.0000000000000000000, -1.000000000000000000, 0.0000000000000000000 ) ) ;
#10 = CARTESIAN_POINT ( 'NONE',  ( -15.89999999999999680, -6.149999999999999467, 0.9499999999999999556 ) ) ;
#11 = DATE_AND_TIME ( #191, #68 ) ;
#12 = CARTESIAN_POINT ( 'NONE',  ( -15.89999999999999680, -6.149999999999999467, 0.9499999999999999556 ) ) ;
#13 = ORIENTED_EDGE ( 'NONE', *, *, #129, .F. ) ;
#14 =( NAMED_UNIT ( * ) PLANE_ANGLE_UNIT ( ) SI_UNIT ( $, .RADIAN. ) );
#15 = COORDINATED_UNIVERSAL_TIME_OFFSET ( 5, 0, .BEHIND. ) ;
#16 = APPROVAL_ROLE ( '' ) ;
#17 = DATE_TIME_ROLE ( 'creation_date' ) ;
#18 = COORDINATED_UNIVERSAL_TIME_OFFSET ( 5, 0, .BEHIND. ) ;
#19 = VERTEX_POINT ( 'NONE', #152 ) ;
#20 = APPROVAL ( #221, 'UNSPECIFIED' ) ;
#21 = APPROVAL_ROLE ( '' ) ;
#22 = AXIS2_PLACEMENT_3D ( 'NONE', #10, #227, #172 ) ;
#23 = CALENDAR_DATE ( 2021, 11, 3 ) ;
#24 = ORIENTED_EDGE ( 'NONE', *, *, #160, .F. ) ;
#25 = DIRECTION ( 'NONE',  ( -0.0000000000000000000, -1.000000000000000000, -0.0000000000000000000 ) ) ;
#26 = LINE ( 'NONE', #47, #220 ) ;
#27 = CARTESIAN_POINT ( 'NONE',  ( -15.89999999999999680, -6.149999999999999467, 0.9499999999999999556 ) ) ;
#28 = APPROVAL_PERSON_ORGANIZATION ( #147, #137, #148 ) ;
#29 = ORIENTED_EDGE ( 'NONE', *, *, #144, .F. ) ;
#30 = DIRECTION ( 'NONE',  ( -1.000000000000000000, -0.0000000000000000000, -0.0000000000000000000 ) ) ;
#31 = CC_DESIGN_PERSON_AND_ORGANIZATION_ASSIGNMENT ( #153, #4, ( #201 ) ) ;
#32 = CARTESIAN_POINT ( 'NONE',  ( 15.90000000000000391, -6.149999999999999467, 0.9499999999999999556 ) ) ;
#33 = VECTOR ( 'NONE', #202, 1000.000000000000000 ) ;
#34 = CALENDAR_DATE ( 2021, 11, 3 ) ;
#35 = VECTOR ( 'NONE', #214, 1000.000000000000000 ) ;
#36 = ORIENTED_EDGE ( 'NONE', *, *, #103, .T. ) ;
#37 = APPLICATION_PROTOCOL_DEFINITION ( 'international standard', 'config_control_design', 1994, #102 ) ;
#38 = PERSON_AND_ORGANIZATION ( #145, #133 ) ;
#39 = VECTOR ( 'NONE', #86, 1000.000000000000000 ) ;
#40 = ADVANCED_BREP_SHAPE_REPRESENTATION ( 'Web Model Lightsmyth Gratings_16863', ( #50, #197 ), #93 ) ;
#41 = CC_DESIGN_SECURITY_CLASSIFICATION ( #201, ( #131 ) ) ;
#42 = PLANE ( 'NONE',  #125 ) ;
#43 = VECTOR ( 'NONE', #213, 1000.000000000000000 ) ;
#44 = CARTESIAN_POINT ( 'NONE',  ( -15.89999999999999680, 6.150000000000001243, 0.9499999999999999556 ) ) ;
#45 = CARTESIAN_POINT ( 'NONE',  ( 0.0000000000000000000, 0.0000000000000000000, 0.0000000000000000000 ) ) ;
#46 = VERTEX_POINT ( 'NONE', #91 ) ;
#47 = CARTESIAN_POINT ( 'NONE',  ( -15.89999999999999680, 6.150000000000001243, 0.9499999999999999556 ) ) ;
#48 = ORIENTED_EDGE ( 'NONE', *, *, #84, .T. ) ;
#49 = AXIS2_PLACEMENT_3D ( 'NONE', #219, #66, #97 ) ;
#50 = MANIFOLD_SOLID_BREP ( 'Boss-Extrude1', #54 ) ;
#51 = PERSON_AND_ORGANIZATION ( #145, #133 ) ;
#52 = PERSON_AND_ORGANIZATION_ROLE ( 'design_supplier' ) ;
#53 = APPROVAL_STATUS ( 'not_yet_approved' ) ;
#54 = CLOSED_SHELL ( 'NONE', ( #235, #64, #116, #132, #95, #161 ) ) ;
#55 = PERSON_AND_ORGANIZATION_ROLE ( 'creator' ) ;
#56 = CARTESIAN_POINT ( 'NONE',  ( 15.90000000000000391, 6.150000000000001243, 0.9499999999999999556 ) ) ;
#57 = COORDINATED_UNIVERSAL_TIME_OFFSET ( 5, 0, .BEHIND. ) ;
#58 = VERTEX_POINT ( 'NONE', #195 ) ;
#59 = CARTESIAN_POINT ( 'NONE',  ( 15.90000000000000391, -6.149999999999999467, 0.9499999999999999556 ) ) ;
#60 = DIRECTION ( 'NONE',  ( -1.000000000000000000, 0.0000000000000000000, -0.0000000000000000000 ) ) ;
#61 = APPROVAL_PERSON_ORGANIZATION ( #206, #6, #16 ) ;
#62 = PLANE ( 'NONE',  #146 ) ;
#63 = PRODUCT_DEFINITION_SHAPE ( 'NONE', 'NONE',  #104 ) ;
#64 = ADVANCED_FACE ( 'NONE', ( #77 ), #73, .F. ) ;
#65 = EDGE_LOOP ( 'NONE', ( #24, #3, #29, #192 ) ) ;
#66 = DIRECTION ( 'NONE',  ( 0.0000000000000000000, 0.0000000000000000000, -1.000000000000000000 ) ) ;
#67 = VECTOR ( 'NONE', #111, 1000.000000000000000 ) ;
#68 = LOCAL_TIME ( 15, 24, 13.00000000000000000, #57 ) ;
#69 = ORIENTED_EDGE ( 'NONE', *, *, #84, .F. ) ;
#70 = EDGE_CURVE ( 'NONE', #89, #226, #184, .T. ) ;
#71 = EDGE_LOOP ( 'NONE', ( #140, #85, #207, #8 ) ) ;
#72 = LINE ( 'NONE', #154, #67 ) ;
#73 = PLANE ( 'NONE',  #168 ) ;
#74 = LINE ( 'NONE', #199, #82 ) ;
#75 = CARTESIAN_POINT ( 'NONE',  ( 15.90000000000000391, -6.149999999999999467, 0.9499999999999999556 ) ) ;
#76 = LOCAL_TIME ( 15, 24, 13.00000000000000000, #15 ) ;
#77 = FACE_OUTER_BOUND ( 'NONE', #134, .T. ) ;
#78 = EDGE_LOOP ( 'NONE', ( #36, #108, #222, #5 ) ) ;
#79 = SHAPE_DEFINITION_REPRESENTATION ( #63, #40 ) ;
#80 = FACE_OUTER_BOUND ( 'NONE', #65, .T. ) ;
#81 = APPLICATION_CONTEXT ( 'configuration controlled 3d designs of mechanical parts and assemblies' ) ;
#82 = VECTOR ( 'NONE', #92, 1000.000000000000000 ) ;
#83 = DIRECTION ( 'NONE',  ( 1.000000000000000000, 0.0000000000000000000, 0.0000000000000000000 ) ) ;
#84 = EDGE_CURVE ( 'NONE', #101, #46, #218, .T. ) ;
#85 = ORIENTED_EDGE ( 'NONE', *, *, #115, .F. ) ;
#86 = DIRECTION ( 'NONE',  ( 0.0000000000000000000, 1.000000000000000000, 0.0000000000000000000 ) ) ;
#87 = DATE_AND_TIME ( #34, #76 ) ;
#88 = CARTESIAN_POINT ( 'NONE',  ( -15.89999999999999680, -6.149999999999999467, 0.0000000000000000000 ) ) ;
#89 = VERTEX_POINT ( 'NONE', #44 ) ;
#90 = EDGE_CURVE ( 'NONE', #89, #19, #159, .T. ) ;
#91 = CARTESIAN_POINT ( 'NONE',  ( 15.90000000000000391, 6.150000000000001243, 0.9499999999999999556 ) ) ;
#92 = DIRECTION ( 'NONE',  ( -0.0000000000000000000, -0.0000000000000000000, -1.000000000000000000 ) ) ;
#93 =( GEOMETRIC_REPRESENTATION_CONTEXT ( 3 ) GLOBAL_UNCERTAINTY_ASSIGNED_CONTEXT ( ( #169 ) ) GLOBAL_UNIT_ASSIGNED_CONTEXT ( ( #156, #14, #119 ) ) REPRESENTATION_CONTEXT ( 'NONE', 'WORKASPACE' ) );
#94 = DIRECTION ( 'NONE',  ( -1.000000000000000000, -0.0000000000000000000, -0.0000000000000000000 ) ) ;
#95 = ADVANCED_FACE ( 'NONE', ( #165 ), #42, .F. ) ;
#96 = DIRECTION ( 'NONE',  ( 0.0000000000000000000, 0.0000000000000000000, 1.000000000000000000 ) ) ;
#97 = DIRECTION ( 'NONE',  ( -1.000000000000000000, 0.0000000000000000000, -0.0000000000000000000 ) ) ;
#98 = ORIENTED_EDGE ( 'NONE', *, *, #129, .T. ) ;
#99 = CALENDAR_DATE ( 2021, 11, 3 ) ;
#100 = COORDINATED_UNIVERSAL_TIME_OFFSET ( 5, 0, .BEHIND. ) ;
#101 = VERTEX_POINT ( 'NONE', #59 ) ;
#102 = APPLICATION_CONTEXT ( 'configuration controlled 3d designs of mechanical parts and assemblies' ) ;
#103 = EDGE_CURVE ( 'NONE', #58, #128, #180, .T. ) ;
#104 = PRODUCT_DEFINITION ( 'UNKNOWN', '', #131, #185 ) ;
#105 = LINE ( 'NONE', #136, #200 ) ;
#106 = CARTESIAN_POINT ( 'NONE',  ( 15.90000000000000391, -6.149999999999999467, 0.0000000000000000000 ) ) ;
#107 = APPROVAL_DATE_TIME ( #113, #137 ) ;
#108 = ORIENTED_EDGE ( 'NONE', *, *, #175, .F. ) ;
#109 = DIRECTION ( 'NONE',  ( -0.0000000000000000000, -0.0000000000000000000, -1.000000000000000000 ) ) ;
#110 = PLANE ( 'NONE',  #22 ) ;
#111 = DIRECTION ( 'NONE',  ( 1.000000000000000000, 0.0000000000000000000, 0.0000000000000000000 ) ) ;
#112 = CARTESIAN_POINT ( 'NONE',  ( 15.90000000000000391, -6.149999999999999467, 0.0000000000000000000 ) ) ;
#113 = DATE_AND_TIME ( #23, #170 ) ;
#114 = VERTEX_POINT ( 'NONE', #229 ) ;
#115 = EDGE_CURVE ( 'NONE', #226, #58, #74, .T. ) ;
#116 = ADVANCED_FACE ( 'NONE', ( #196 ), #110, .F. ) ;
#117 = FACE_OUTER_BOUND ( 'NONE', #78, .T. ) ;
#118 = CC_DESIGN_DATE_AND_TIME_ASSIGNMENT ( #164, #17, ( #104 ) ) ;
#119 =( NAMED_UNIT ( * ) SI_UNIT ( $, .STERADIAN. ) SOLID_ANGLE_UNIT ( ) );
#120 = APPROVAL_STATUS ( 'not_yet_approved' ) ;
#121 = DATE_AND_TIME ( #99, #205 ) ;
#122 = ORIENTED_EDGE ( 'NONE', *, *, #160, .T. ) ;
#123 = DATE_TIME_ROLE ( 'classification_date' ) ;
#124 = PERSON_AND_ORGANIZATION_ROLE ( 'design_owner' ) ;
#125 = AXIS2_PLACEMENT_3D ( 'NONE', #198, #150, #60 ) ;
#126 = LINE ( 'NONE', #233, #33 ) ;
#127 = CALENDAR_DATE ( 2021, 11, 3 ) ;
#128 = VERTEX_POINT ( 'NONE', #106 ) ;
#129 = EDGE_CURVE ( 'NONE', #46, #114, #138, .T. ) ;
#130 = EDGE_LOOP ( 'NONE', ( #48, #187, #212, #151 ) ) ;
#131 = PRODUCT_DEFINITION_FORMATION_WITH_SPECIFIED_SOURCE ( 'ANY', '', #209, .NOT_KNOWN. ) ;
#132 = ADVANCED_FACE ( 'NONE', ( #117 ), #62, .F. ) ;
#133 = ORGANIZATION ( 'UNSPECIFIED', 'UNSPECIFIED', '' ) ;
#134 = EDGE_LOOP ( 'NONE', ( #230, #171, #237, #98 ) ) ;
#135 = DIRECTION ( 'NONE',  ( 0.0000000000000000000, 1.000000000000000000, 0.0000000000000000000 ) ) ;
#136 = CARTESIAN_POINT ( 'NONE',  ( -15.89999999999999680, 6.150000000000001243, 0.0000000000000000000 ) ) ;
#137 = APPROVAL ( #53, 'UNSPECIFIED' ) ;
#138 = LINE ( 'NONE', #56, #35 ) ;
#139 = AXIS2_PLACEMENT_3D ( 'NONE', #75, #216, #178 ) ;
#140 = ORIENTED_EDGE ( 'NONE', *, *, #144, .T. ) ;
#141 = PERSON_AND_ORGANIZATION_ROLE ( 'creator' ) ;
#142 = LINE ( 'NONE', #32, #2 ) ;
#143 = ORIENTED_EDGE ( 'NONE', *, *, #175, .T. ) ;
#144 = EDGE_CURVE ( 'NONE', #19, #58, #126, .T. ) ;
#145 = PERSON ( 'UNSPECIFIED', 'UNSPECIFIED', 'UNSPECIFIED', ('UNSPECIFIED'), ('UNSPECIFIED'), ('UNSPECIFIED') ) ;
#146 = AXIS2_PLACEMENT_3D ( 'NONE', #12, #135, #215 ) ;
#147 = PERSON_AND_ORGANIZATION ( #145, #133 ) ;
#148 = APPROVAL_ROLE ( '' ) ;
#149 = EDGE_CURVE ( 'NONE', #46, #89, #26, .T. ) ;
#150 = DIRECTION ( 'NONE',  ( 0.0000000000000000000, 0.0000000000000000000, -1.000000000000000000 ) ) ;
#151 = ORIENTED_EDGE ( 'NONE', *, *, #181, .T. ) ;
#152 = CARTESIAN_POINT ( 'NONE',  ( -15.89999999999999680, 6.150000000000001243, 0.0000000000000000000 ) ) ;
#153 = PERSON_AND_ORGANIZATION ( #145, #133 ) ;
#154 = CARTESIAN_POINT ( 'NONE',  ( -15.89999999999999680, -6.149999999999999467, 0.9499999999999999556 ) ) ;
#155 = CC_DESIGN_PERSON_AND_ORGANIZATION_ASSIGNMENT ( #51, #124, ( #209 ) ) ;
#156 =( LENGTH_UNIT ( ) NAMED_UNIT ( * ) SI_UNIT ( .MILLI., .METRE. ) );
#157 = PLANE ( 'NONE',  #139 ) ;
#158 = APPROVAL_PERSON_ORGANIZATION ( #194, #20, #21 ) ;
#159 = LINE ( 'NONE', #193, #203 ) ;
#160 = EDGE_CURVE ( 'NONE', #128, #114, #189, .T. ) ;
#161 = ADVANCED_FACE ( 'NONE', ( #80 ), #182, .T. ) ;
#162 = FACE_OUTER_BOUND ( 'NONE', #224, .T. ) ;
#163 = MECHANICAL_CONTEXT ( 'NONE', #102, 'mechanical' ) ;
#164 = DATE_AND_TIME ( #127, #186 ) ;
#165 = FACE_OUTER_BOUND ( 'NONE', #130, .T. ) ;
#166 = EDGE_CURVE ( 'NONE', #114, #19, #105, .T. ) ;
#167 = APPROVAL_DATE_TIME ( #11, #20 ) ;
#168 = AXIS2_PLACEMENT_3D ( 'NONE', #228, #9, #173 ) ;
#169 = UNCERTAINTY_MEASURE_WITH_UNIT (LENGTH_MEASURE( 1.000000000000000082E-05 ), #156, 'distance_accuracy_value', 'NONE');
#170 = LOCAL_TIME ( 15, 24, 13.00000000000000000, #18 ) ;
#171 = ORIENTED_EDGE ( 'NONE', *, *, #90, .F. ) ;
#172 = DIRECTION ( 'NONE',  ( 0.0000000000000000000, 0.0000000000000000000, -1.000000000000000000 ) ) ;
#173 = DIRECTION ( 'NONE',  ( 0.0000000000000000000, -0.0000000000000000000, -1.000000000000000000 ) ) ;
#174 = CARTESIAN_POINT ( 'NONE',  ( -15.89999999999999680, -6.149999999999999467, 0.9499999999999999556 ) ) ;
#175 = EDGE_CURVE ( 'NONE', #101, #128, #142, .T. ) ;
#176 = VECTOR ( 'NONE', #25, 1000.000000000000000 ) ;
#177 = CC_DESIGN_APPROVAL ( #6, ( #131 ) ) ;
#178 = DIRECTION ( 'NONE',  ( 0.0000000000000000000, 0.0000000000000000000, 1.000000000000000000 ) ) ;
#179 = PERSON_AND_ORGANIZATION ( #145, #133 ) ;
#180 = LINE ( 'NONE', #88, #43 ) ;
#181 = EDGE_CURVE ( 'NONE', #226, #101, #72, .T. ) ;
#182 = PLANE ( 'NONE',  #49 ) ;
#183 = CC_DESIGN_DATE_AND_TIME_ASSIGNMENT ( #121, #123, ( #201 ) ) ;
#184 = LINE ( 'NONE', #174, #176 ) ;
#185 = DESIGN_CONTEXT ( 'detailed design', #81, 'design' ) ;
#186 = LOCAL_TIME ( 15, 24, 13.00000000000000000, #217 ) ;
#187 = ORIENTED_EDGE ( 'NONE', *, *, #149, .T. ) ;
#188 = SECURITY_CLASSIFICATION_LEVEL ( 'unclassified' ) ;
#189 = LINE ( 'NONE', #112, #234 ) ;
#190 = CC_DESIGN_PERSON_AND_ORGANIZATION_ASSIGNMENT ( #225, #141, ( #131 ) ) ;
#191 = CALENDAR_DATE ( 2021, 11, 3 ) ;
#192 = ORIENTED_EDGE ( 'NONE', *, *, #166, .F. ) ;
#193 = CARTESIAN_POINT ( 'NONE',  ( -15.89999999999999680, 6.150000000000001243, 0.9499999999999999556 ) ) ;
#194 = PERSON_AND_ORGANIZATION ( #145, #133 ) ;
#195 = CARTESIAN_POINT ( 'NONE',  ( -15.89999999999999680, -6.149999999999999467, 0.0000000000000000000 ) ) ;
#196 = FACE_OUTER_BOUND ( 'NONE', #71, .T. ) ;
#197 = AXIS2_PLACEMENT_3D ( 'NONE', #45, #96, #83 ) ;
#198 = CARTESIAN_POINT ( 'NONE',  ( 0.0000000000000000000, 0.0000000000000000000, 0.9499999999999999556 ) ) ;
#199 = CARTESIAN_POINT ( 'NONE',  ( -15.89999999999999680, -6.149999999999999467, 0.9499999999999999556 ) ) ;
#200 = VECTOR ( 'NONE', #30, 1000.000000000000000 ) ;
#201 = SECURITY_CLASSIFICATION ( '', '', #188 ) ;
#202 = DIRECTION ( 'NONE',  ( -0.0000000000000000000, -1.000000000000000000, -0.0000000000000000000 ) ) ;
#203 = VECTOR ( 'NONE', #109, 1000.000000000000000 ) ;
#204 = PRODUCT_RELATED_PRODUCT_CATEGORY ( 'detail', '', ( #209 ) ) ;
#205 = LOCAL_TIME ( 15, 24, 13.00000000000000000, #100 ) ;
#206 = PERSON_AND_ORGANIZATION ( #145, #133 ) ;
#207 = ORIENTED_EDGE ( 'NONE', *, *, #70, .F. ) ;
#208 = CC_DESIGN_APPROVAL ( #20, ( #104 ) ) ;
#209 = PRODUCT ( 'Web Model Lightsmyth Gratings_16863', 'Web Model Lightsmyth Gratings_16863', '', ( #163 ) ) ;
#210 = APPROVAL_DATE_TIME ( #87, #6 ) ;
#211 = CC_DESIGN_PERSON_AND_ORGANIZATION_ASSIGNMENT ( #179, #52, ( #131 ) ) ;
#212 = ORIENTED_EDGE ( 'NONE', *, *, #70, .T. ) ;
#213 = DIRECTION ( 'NONE',  ( 1.000000000000000000, 0.0000000000000000000, 0.0000000000000000000 ) ) ;
#214 = DIRECTION ( 'NONE',  ( -0.0000000000000000000, -0.0000000000000000000, -1.000000000000000000 ) ) ;
#215 = DIRECTION ( 'NONE',  ( 0.0000000000000000000, -0.0000000000000000000, 1.000000000000000000 ) ) ;
#216 = DIRECTION ( 'NONE',  ( -1.000000000000000000, 0.0000000000000000000, 0.0000000000000000000 ) ) ;
#217 = COORDINATED_UNIVERSAL_TIME_OFFSET ( 5, 0, .BEHIND. ) ;
#218 = LINE ( 'NONE', #231, #39 ) ;
#219 = CARTESIAN_POINT ( 'NONE',  ( 0.0000000000000000000, 0.0000000000000000000, 0.0000000000000000000 ) ) ;
#220 = VECTOR ( 'NONE', #94, 1000.000000000000000 ) ;
#221 = APPROVAL_STATUS ( 'not_yet_approved' ) ;
#222 = ORIENTED_EDGE ( 'NONE', *, *, #181, .F. ) ;
#223 = APPLICATION_PROTOCOL_DEFINITION ( 'international standard', 'config_control_design', 1994, #81 ) ;
#224 = EDGE_LOOP ( 'NONE', ( #122, #13, #69, #143 ) ) ;
#225 = PERSON_AND_ORGANIZATION ( #145, #133 ) ;
#226 = VERTEX_POINT ( 'NONE', #27 ) ;
#227 = DIRECTION ( 'NONE',  ( 1.000000000000000000, 0.0000000000000000000, 0.0000000000000000000 ) ) ;
#228 = CARTESIAN_POINT ( 'NONE',  ( -15.89999999999999680, 6.150000000000001243, 0.9499999999999999556 ) ) ;
#229 = CARTESIAN_POINT ( 'NONE',  ( 15.90000000000000391, 6.150000000000001243, 0.0000000000000000000 ) ) ;
#230 = ORIENTED_EDGE ( 'NONE', *, *, #166, .T. ) ;
#231 = CARTESIAN_POINT ( 'NONE',  ( 15.90000000000000391, -6.149999999999999467, 0.9499999999999999556 ) ) ;
#232 = DIRECTION ( 'NONE',  ( -0.0000000000000000000, -0.0000000000000000000, -1.000000000000000000 ) ) ;
#233 = CARTESIAN_POINT ( 'NONE',  ( -15.89999999999999680, -6.149999999999999467, 0.0000000000000000000 ) ) ;
#234 = VECTOR ( 'NONE', #236, 1000.000000000000000 ) ;
#235 = ADVANCED_FACE ( 'NONE', ( #162 ), #157, .F. ) ;
#236 = DIRECTION ( 'NONE',  ( 0.0000000000000000000, 1.000000000000000000, 0.0000000000000000000 ) ) ;
#237 = ORIENTED_EDGE ( 'NONE', *, *, #149, .F. ) ;
ENDSEC;
END-ISO-10303-21;
