ISO-10303-21;
HEADER;
FILE_DESCRIPTION (( 'STEP AP203' ),
    '1' );
FILE_NAME ('20117-E0W.STEP',
    '2015-07-10T15:26:51',
    ( 'Admin' ),
    ( '' ),
    'SwSTEP 2.0',
    'SolidWorks 2014',
    '' );
FILE_SCHEMA (( 'CONFIG_CONTROL_DESIGN' ));
ENDSEC;

DATA;
#1 = AXIS2_PLACEMENT_3D ( 'NONE', #189, #147, #179 ) ;
#2 = DATE_AND_TIME ( #246, #240 ) ;
#3 = ORIENTED_EDGE ( 'NONE', *, *, #47, .F. ) ;
#4 = DIRECTION ( 'NONE',  ( -0.0000000000000000000, 3.061515884555943100E-016, -1.000000000000000000 ) ) ;
#5 = EDGE_CURVE ( 'NONE', #285, #286, #253, .T. ) ;
#6 = CARTESIAN_POINT ( 'NONE',  ( 0.0000000000000000000, 1.448219474030343200E-014, -119.2799999999998300 ) ) ;
#7 = DIRECTION ( 'NONE',  ( 0.0000000000000000000, 1.000000000000000000, 3.073328992872296900E-016 ) ) ;
#8 = EDGE_LOOP ( 'NONE', ( #148, #100, #288, #139 ) ) ;
#9 = FACE_OUTER_BOUND ( 'NONE', #162, .T. ) ;
#10 = AXIS2_PLACEMENT_3D ( 'NONE', #181, #92, #121 ) ;
#11 = DIRECTION ( 'NONE',  ( -0.0000000000000000000, 3.061515884555943100E-016, -1.000000000000000000 ) ) ;
#12 = PRODUCT_DEFINITION_SHAPE ( 'NONE', 'NONE',  #109 ) ;
#13 = CARTESIAN_POINT ( 'NONE',  ( 0.0000000000000000000, -12.55857864376269400, -2.000000000000008000 ) ) ;
#14 = DIRECTION ( 'NONE',  ( 0.0000000000000000000, 1.000000000000000000, 3.107937555406666600E-016 ) ) ;
#15 = VECTOR ( 'NONE', #167, 1000.000000000000100 ) ;
#16 = EDGE_CURVE ( 'NONE', #138, #286, #19, .T. ) ;
#17 = ORIENTED_EDGE ( 'NONE', *, *, #47, .T. ) ;
#18 = CC_DESIGN_PERSON_AND_ORGANIZATION_ASSIGNMENT ( #75, #31, ( #122 ) ) ;
#19 = CIRCLE ( 'NONE', #10, 12.55857864376268100 ) ;
#20 = DIRECTION ( 'NONE',  ( 0.0000000000000000000, 0.7071067811867819400, -0.7071067811863130900 ) ) ;
#21 = UNCERTAINTY_MEASURE_WITH_UNIT (LENGTH_MEASURE( 1.000000000000000100E-005 ), #66, 'distance_accuracy_value', 'NONE');
#22 = APPLICATION_CONTEXT ( 'configuration controlled 3d designs of mechanical parts and assemblies' ) ;
#23 = ADVANCED_FACE ( 'NONE', ( #295 ), #196, .T. ) ;
#24 = MECHANICAL_CONTEXT ( 'NONE', #22, 'mechanical' ) ;
#25 = DIRECTION ( 'NONE',  ( -0.0000000000000000000, 3.061515884555943100E-016, -1.000000000000000000 ) ) ;
#26 = APPROVAL_STATUS ( 'not_yet_approved' ) ;
#27 = ORIENTED_EDGE ( 'NONE', *, *, #77, .F. ) ;
#28 = CC_DESIGN_DATE_AND_TIME_ASSIGNMENT ( #2, #64, ( #232 ) ) ;
#29 = DATE_AND_TIME ( #219, #280 ) ;
#30 = CARTESIAN_POINT ( 'NONE',  ( 0.0000000000000000000, 8.547752349680199000E-016, -2.000000000000001800 ) ) ;
#31 = PERSON_AND_ORGANIZATION_ROLE ( 'design_owner' ) ;
#32 = ORIENTED_EDGE ( 'NONE', *, *, #46, .F. ) ;
#33 = LOCAL_TIME ( 11, 26, 51.00000000000000000, #260 ) ;
#34 = DIRECTION ( 'NONE',  ( -0.0000000000000000000, 3.061515884555943100E-016, -1.000000000000000000 ) ) ;
#35 = CONICAL_SURFACE ( 'NONE', #67, 12.69999999999999800, 0.7853981633977795700 ) ;
#36 = APPROVAL_DATE_TIME ( #29, #125 ) ;
#37 = AXIS2_PLACEMENT_3D ( 'NONE', #206, #86, #258 ) ;
#38 = PERSON_AND_ORGANIZATION ( #256, #137 ) ;
#39 = CARTESIAN_POINT ( 'NONE',  ( 1.555301434917138200E-015, -12.69999999999999800, 1.206604004573720700 ) ) ;
#40 = PERSON_AND_ORGANIZATION ( #256, #137 ) ;
#41 = CYLINDRICAL_SURFACE ( 'NONE', #205, 12.69999999999999900 ) ;
#42 = DIRECTION ( 'NONE',  ( 0.0000000000000000000, 1.000000000000000000, 3.073328992872296900E-016 ) ) ;
#43 = EDGE_CURVE ( 'NONE', #261, #254, #102, .T. ) ;
#44 = ADVANCED_FACE ( 'NONE', ( #88 ), #277, .T. ) ;
#45 = EDGE_LOOP ( 'NONE', ( #278, #58, #132, #72 ) ) ;
#46 = EDGE_CURVE ( 'NONE', #254, #274, #192, .T. ) ;
#47 = EDGE_CURVE ( 'NONE', #261, #51, #264, .T. ) ;
#48 = ORIENTED_EDGE ( 'NONE', *, *, #16, .F. ) ;
#49 = CARTESIAN_POINT ( 'NONE',  ( 0.0000000000000000000, 8.547752349680204900E-016, -2.000000000000004000 ) ) ;
#50 = CARTESIAN_POINT ( 'NONE',  ( 0.0000000000000000000, 0.0000000000000000000, 0.0000000000000000000 ) ) ;
#51 = VERTEX_POINT ( 'NONE', #239 ) ;
#52 = EDGE_CURVE ( 'NONE', #274, #51, #214, .T. ) ;
#53 = AXIS2_PLACEMENT_3D ( 'NONE', #146, #110, #80 ) ;
#54 = ORIENTED_EDGE ( 'NONE', *, *, #140, .F. ) ;
#55 = DIRECTION ( 'NONE',  ( -1.224646799147353200E-016, 1.000000000000000000, 0.0000000000000000000 ) ) ;
#56 = CC_DESIGN_PERSON_AND_ORGANIZATION_ASSIGNMENT ( #215, #90, ( #232 ) ) ;
#57 = APPROVAL_ROLE ( '' ) ;
#58 = ORIENTED_EDGE ( 'NONE', *, *, #177, .T. ) ;
#59 = DESIGN_CONTEXT ( 'detailed design', #150, 'design' ) ;
#60 = DIRECTION ( 'NONE',  ( -0.0000000000000000000, 3.061515884555943100E-016, -1.000000000000000000 ) ) ;
#61 = LOCAL_TIME ( 11, 26, 51.00000000000000000, #158 ) ;
#62 = DIRECTION ( 'NONE',  ( 0.0000000000000000000, 1.000000000000000000, 3.073328992872296400E-016 ) ) ;
#63 = AXIS2_PLACEMENT_3D ( 'NONE', #108, #284, #241 ) ;
#64 = DATE_TIME_ROLE ( 'classification_date' ) ;
#65 = ORIENTED_EDGE ( 'NONE', *, *, #119, .T. ) ;
#66 =( LENGTH_UNIT ( ) NAMED_UNIT ( * ) SI_UNIT ( .MILLI., .METRE. ) );
#67 = AXIS2_PLACEMENT_3D ( 'NONE', #236, #60, #42 ) ;
#68 = ORIENTED_EDGE ( 'NONE', *, *, #5, .F. ) ;
#69 = AXIS2_PLACEMENT_3D ( 'NONE', #111, #25, #174 ) ;
#70 = DATE_AND_TIME ( #191, #149 ) ;
#71 = ORIENTED_EDGE ( 'NONE', *, *, #52, .F. ) ;
#72 = ORIENTED_EDGE ( 'NONE', *, *, #136, .F. ) ;
#73 = DIRECTION ( 'NONE',  ( 0.0000000000000000000, 1.000000000000000000, 3.073328992872296400E-016 ) ) ;
#74 = VECTOR ( 'NONE', #101, 1000.000000000000000 ) ;
#75 = PERSON_AND_ORGANIZATION ( #256, #137 ) ;
#76 = AXIS2_PLACEMENT_3D ( 'NONE', #202, #268, #73 ) ;
#77 = EDGE_CURVE ( 'NONE', #254, #261, #120, .T. ) ;
#78 = PERSON_AND_ORGANIZATION_ROLE ( 'creator' ) ;
#79 = EDGE_CURVE ( 'NONE', #234, #259, #145, .T. ) ;
#80 = DIRECTION ( 'NONE',  ( 0.0000000000000000000, 1.000000000000000000, 3.073328992872296400E-016 ) ) ;
#81 = CARTESIAN_POINT ( 'NONE',  ( 0.0000000000000000000, -1.522161171756147400E-014, 2.000000000000085300 ) ) ;
#82 = FACE_OUTER_BOUND ( 'NONE', #134, .T. ) ;
#83 = CC_DESIGN_PERSON_AND_ORGANIZATION_ASSIGNMENT ( #38, #78, ( #199 ) ) ;
#84 = ORIENTED_EDGE ( 'NONE', *, *, #249, .F. ) ;
#85 = DIRECTION ( 'NONE',  ( 1.000000000000000000, 1.224646799147353200E-016, 3.749275628560213600E-032 ) ) ;
#86 = DIRECTION ( 'NONE',  ( 1.000000000000000000, 0.0000000000000000000, -0.0000000000000000000 ) ) ;
#87 = CIRCLE ( 'NONE', #63, 121.2799999999999200 ) ;
#88 = FACE_OUTER_BOUND ( 'NONE', #218, .T. ) ;
#89 = ORIENTED_EDGE ( 'NONE', *, *, #46, .T. ) ;
#90 = PERSON_AND_ORGANIZATION_ROLE ( 'classification_officer' ) ;
#91 = ORIENTED_EDGE ( 'NONE', *, *, #291, .T. ) ;
#92 = DIRECTION ( 'NONE',  ( -0.0000000000000000000, 3.061515884555943100E-016, -1.000000000000000000 ) ) ;
#93 = PERSON_AND_ORGANIZATION ( #256, #137 ) ;
#94 = DATE_AND_TIME ( #164, #61 ) ;
#95 = AXIS2_PLACEMENT_3D ( 'NONE', #115, #11, #133 ) ;
#96 = ORIENTED_EDGE ( 'NONE', *, *, #43, .F. ) ;
#97 = PERSON_AND_ORGANIZATION_ROLE ( 'design_supplier' ) ;
#98 = CARTESIAN_POINT ( 'NONE',  ( 1.537982313792419600E-015, -12.55857864376264000, 1.348025360810949400 ) ) ;
#99 = ADVANCED_FACE ( 'NONE', ( #144 ), #130, .T. ) ;
#100 = ORIENTED_EDGE ( 'NONE', *, *, #163, .T. ) ;
#101 = DIRECTION ( 'NONE',  ( -0.0000000000000000000, 3.061515884555943100E-016, -1.000000000000000000 ) ) ;
#102 = CIRCLE ( 'NONE', #197, 12.55857864376269400 ) ;
#103 = PERSON_AND_ORGANIZATION ( #256, #137 ) ;
#104 = AXIS2_PLACEMENT_3D ( 'NONE', #50, #267, #279 ) ;
#105 = CC_DESIGN_PERSON_AND_ORGANIZATION_ASSIGNMENT ( #103, #97, ( #199 ) ) ;
#106 = SECURITY_CLASSIFICATION_LEVEL ( 'unclassified' ) ;
#107 = CARTESIAN_POINT ( 'NONE',  ( 0.0000000000000000000, 8.547752349680193100E-016, -2.000000000000000000 ) ) ;
#108 = CARTESIAN_POINT ( 'NONE',  ( 0.0000000000000000000, 1.448219474030343200E-014, -119.2799999999998300 ) ) ;
#109 = PRODUCT_DEFINITION ( 'UNKNOWN', '', #199, #59 ) ;
#110 = DIRECTION ( 'NONE',  ( -0.0000000000000000000, 3.061515884555943100E-016, -1.000000000000000000 ) ) ;
#111 = CARTESIAN_POINT ( 'NONE',  ( 0.0000000000000000000, 8.114788621144234600E-016, -1.858578643762693400 ) ) ;
#112 = AXIS2_PLACEMENT_3D ( 'NONE', #113, #153, #223 ) ;
#113 = CARTESIAN_POINT ( 'NONE',  ( 0.0000000000000000000, 8.547752349680204900E-016, -2.000000000000004000 ) ) ;
#114 = ORIENTED_EDGE ( 'NONE', *, *, #119, .F. ) ;
#115 = CARTESIAN_POINT ( 'NONE',  ( 0.0000000000000000000, 8.547752349680204900E-016, -2.000000000000004000 ) ) ;
#116 = DIRECTION ( 'NONE',  ( -0.0000000000000000000, 3.061515884555943100E-016, -1.000000000000000000 ) ) ;
#117 = FACE_OUTER_BOUND ( 'NONE', #247, .T. ) ;
#118 = ADVANCED_FACE ( 'NONE', ( #9 ), #193, .T. ) ;
#119 = EDGE_CURVE ( 'NONE', #51, #274, #203, .T. ) ;
#120 = CIRCLE ( 'NONE', #95, 12.55857864376269400 ) ;
#121 = DIRECTION ( 'NONE',  ( 0.0000000000000000000, 1.000000000000000000, 3.107937555406666600E-016 ) ) ;
#122 = PRODUCT ( '20117-E0W', '20117-E0W', '', ( #24 ) ) ;
#123 = ORIENTED_EDGE ( 'NONE', *, *, #77, .T. ) ;
#124 = LINE ( 'NONE', #263, #131 ) ;
#125 = APPROVAL ( #244, 'UNSPECIFIED' ) ;
#126 = DIRECTION ( 'NONE',  ( 0.0000000000000000000, 1.000000000000000000, 3.107937555406663600E-016 ) ) ;
#127 = FACE_OUTER_BOUND ( 'NONE', #180, .T. ) ;
#128 = PRODUCT_RELATED_PRODUCT_CATEGORY ( 'detail', '', ( #122 ) ) ;
#129 = ORIENTED_EDGE ( 'NONE', *, *, #163, .F. ) ;
#130 = CONICAL_SURFACE ( 'NONE', #112, 12.55857864376269400, 0.7853981633974391800 ) ;
#131 = VECTOR ( 'NONE', #20, 1000.000000000000000 ) ;
#132 = ORIENTED_EDGE ( 'NONE', *, *, #79, .F. ) ;
#133 = DIRECTION ( 'NONE',  ( 0.0000000000000000000, 1.000000000000000000, 3.107937555406663600E-016 ) ) ;
#134 = EDGE_LOOP ( 'NONE', ( #235, #123 ) ) ;
#135 =( NAMED_UNIT ( * ) SI_UNIT ( $, .STERADIAN. ) SOLID_ANGLE_UNIT ( ) );
#136 = EDGE_CURVE ( 'NONE', #138, #234, #124, .T. ) ;
#137 = ORGANIZATION ( 'UNSPECIFIED', 'UNSPECIFIED', '' ) ;
#138 = VERTEX_POINT ( 'NONE', #230 ) ;
#139 = ORIENTED_EDGE ( 'NONE', *, *, #238, .F. ) ;
#140 = EDGE_CURVE ( 'NONE', #234, #274, #169, .T. ) ;
#141 = ADVANCED_FACE ( 'NONE', ( #184 ), #35, .T. ) ;
#142 = APPROVAL_STATUS ( 'not_yet_approved' ) ;
#143 = CARTESIAN_POINT ( 'NONE',  ( 0.0000000000000000000, 12.69999999999999800, 1.206604004573728500 ) ) ;
#144 = FACE_OUTER_BOUND ( 'NONE', #222, .T. ) ;
#145 = CIRCLE ( 'NONE', #170, 12.69999999999999900 ) ;
#146 = CARTESIAN_POINT ( 'NONE',  ( 0.0000000000000000000, 8.547752349680193100E-016, -2.000000000000000000 ) ) ;
#147 = DIRECTION ( 'NONE',  ( -0.0000000000000000000, 3.061515884555943100E-016, -1.000000000000000000 ) ) ;
#148 = ORIENTED_EDGE ( 'NONE', *, *, #177, .F. ) ;
#149 = LOCAL_TIME ( 11, 26, 51.00000000000000000, #182 ) ;
#150 = APPLICATION_CONTEXT ( 'configuration controlled 3d designs of mechanical parts and assemblies' ) ;
#151 = APPROVAL_PERSON_ORGANIZATION ( #40, #176, #257 ) ;
#152 = DIRECTION ( 'NONE',  ( 0.0000000000000000000, 1.000000000000000000, 3.061515884555943100E-016 ) ) ;
#153 = DIRECTION ( 'NONE',  ( 0.0000000000000000000, -3.061515884555943100E-016, 1.000000000000000000 ) ) ;
#154 = DIRECTION ( 'NONE',  ( -0.0000000000000000000, 3.061515884555943100E-016, -1.000000000000000000 ) ) ;
#155 = CIRCLE ( 'NONE', #187, 12.55857864376268100 ) ;
#156 = APPLICATION_PROTOCOL_DEFINITION ( 'international standard', 'config_control_design', 1994, #150 ) ;
#157 = DIRECTION ( 'NONE',  ( 0.0000000000000000000, 1.000000000000000000, 3.073328992872296400E-016 ) ) ;
#158 = COORDINATED_UNIVERSAL_TIME_OFFSET ( 5, 0, .BEHIND. ) ;
#159 = CARTESIAN_POINT ( 'NONE',  ( 0.0000000000000000000, -1.269316745802962100E-016, 1.206604004573724700 ) ) ;
#160 = ORIENTED_EDGE ( 'NONE', *, *, #249, .T. ) ;
#161 = DIRECTION ( 'NONE',  ( 1.000000000000000000, 0.0000000000000000000, -0.0000000000000000000 ) ) ;
#162 = EDGE_LOOP ( 'NONE', ( #84, #195, #48 ) ) ;
#163 = EDGE_CURVE ( 'NONE', #286, #138, #155, .T. ) ;
#164 = CALENDAR_DATE ( 2015, 10, 7 ) ;
#165 = LINE ( 'NONE', #283, #74 ) ;
#166 = AXIS2_PLACEMENT_3D ( 'NONE', #298, #161, #276 ) ;
#167 = DIRECTION ( 'NONE',  ( 8.659560562354852700E-017, 0.7071067811865408000, 0.7071067811865541200 ) ) ;
#168 = FACE_OUTER_BOUND ( 'NONE', #190, .T. ) ;
#169 = LINE ( 'NONE', #178, #185 ) ;
#170 = AXIS2_PLACEMENT_3D ( 'NONE', #159, #4, #157 ) ;
#171 = MANIFOLD_SOLID_BREP ( '20117-001-1-solid1', #269 ) ;
#172 = ORIENTED_EDGE ( 'NONE', *, *, #52, .T. ) ;
#173 = CC_DESIGN_APPROVAL ( #176, ( #109 ) ) ;
#174 = DIRECTION ( 'NONE',  ( 0.0000000000000000000, 1.000000000000000000, 3.073328992872295900E-016 ) ) ;
#175 = ADVANCED_BREP_SHAPE_REPRESENTATION ( '20117-E0W', ( #171, #104 ), #227 ) ;
#176 = APPROVAL ( #142, 'UNSPECIFIED' ) ;
#177 = EDGE_CURVE ( 'NONE', #286, #259, #201, .T. ) ;
#178 = CARTESIAN_POINT ( 'NONE',  ( 0.0000000000000000000, 12.69999999999999900, -1.999999999999996200 ) ) ;
#179 = DIRECTION ( 'NONE',  ( 0.0000000000000000000, 1.000000000000000000, 3.073328992872295900E-016 ) ) ;
#180 = EDGE_LOOP ( 'NONE', ( #68, #160, #129 ) ) ;
#181 = CARTESIAN_POINT ( 'NONE',  ( 0.0000000000000000000, -1.702280474338671400E-016, 1.348025360810949400 ) ) ;
#182 = COORDINATED_UNIVERSAL_TIME_OFFSET ( 5, 0, .BEHIND. ) ;
#183 = ORIENTED_EDGE ( 'NONE', *, *, #79, .T. ) ;
#184 = FACE_OUTER_BOUND ( 'NONE', #8, .T. ) ;
#185 = VECTOR ( 'NONE', #211, 1000.000000000000000 ) ;
#186 = CARTESIAN_POINT ( 'NONE',  ( 0.0000000000000000000, 12.70000000000000100, -1.858578643762689400 ) ) ;
#187 = AXIS2_PLACEMENT_3D ( 'NONE', #290, #34, #14 ) ;
#188 = DATE_AND_TIME ( #266, #33 ) ;
#189 = CARTESIAN_POINT ( 'NONE',  ( 0.0000000000000000000, 8.114788621144234600E-016, -1.858578643762693400 ) ) ;
#190 = EDGE_LOOP ( 'NONE', ( #293, #297, #208, #114 ) ) ;
#191 = CALENDAR_DATE ( 2015, 10, 7 ) ;
#192 = LINE ( 'NONE', #209, #15 ) ;
#193 = SPHERICAL_SURFACE ( 'NONE', #166, 121.2799999999999200 ) ;
#194 = APPROVAL_DATE_TIME ( #94, #176 ) ;
#195 = ORIENTED_EDGE ( 'NONE', *, *, #5, .T. ) ;
#196 = CONICAL_SURFACE ( 'NONE', #287, 12.69999999999999800, 0.7853981633977795700 ) ;
#197 = AXIS2_PLACEMENT_3D ( 'NONE', #248, #265, #126 ) ;
#198 = CC_DESIGN_DATE_AND_TIME_ASSIGNMENT ( #70, #296, ( #109 ) ) ;
#199 = PRODUCT_DEFINITION_FORMATION_WITH_SPECIFIED_SOURCE ( 'ANY', '', #122, .NOT_KNOWN. ) ;
#200 = APPROVAL_DATE_TIME ( #188, #220 ) ;
#201 = LINE ( 'NONE', #289, #272 ) ;
#202 = CARTESIAN_POINT ( 'NONE',  ( 0.0000000000000000000, -1.269316745802962100E-016, 1.206604004573724700 ) ) ;
#203 = CIRCLE ( 'NONE', #69, 12.70000000000000100 ) ;
#204 = APPROVAL_PERSON_ORGANIZATION ( #292, #125, #57 ) ;
#205 = AXIS2_PLACEMENT_3D ( 'NONE', #107, #301, #62 ) ;
#206 = CARTESIAN_POINT ( 'NONE',  ( 0.0000000000000000000, 1.448219474030343200E-014, -119.2799999999998300 ) ) ;
#207 = CYLINDRICAL_SURFACE ( 'NONE', #53, 12.69999999999999900 ) ;
#208 = ORIENTED_EDGE ( 'NONE', *, *, #140, .T. ) ;
#209 = CARTESIAN_POINT ( 'NONE',  ( 1.537982313792429100E-015, 12.55857864376269400, -2.000000000000000000 ) ) ;
#210 = VECTOR ( 'NONE', #245, 1000.000000000000100 ) ;
#211 = DIRECTION ( 'NONE',  ( -0.0000000000000000000, 3.061515884555943100E-016, -1.000000000000000000 ) ) ;
#212 = COORDINATED_UNIVERSAL_TIME_OFFSET ( 5, 0, .BEHIND. ) ;
#213 = PERSON_AND_ORGANIZATION_ROLE ( 'creator' ) ;
#214 = CIRCLE ( 'NONE', #1, 12.70000000000000100 ) ;
#215 = PERSON_AND_ORGANIZATION ( #256, #137 ) ;
#216 = CARTESIAN_POINT ( 'NONE',  ( 0.0000000000000000000, -12.55857864376269400, -2.000000000000008000 ) ) ;
#217 = AXIS2_PLACEMENT_3D ( 'NONE', #49, #252, #270 ) ;
#218 = EDGE_LOOP ( 'NONE', ( #32, #96, #17, #65 ) ) ;
#219 = CALENDAR_DATE ( 2015, 10, 7 ) ;
#220 = APPROVAL ( #26, 'UNSPECIFIED' ) ;
#221 = SHAPE_DEFINITION_REPRESENTATION ( #12, #175 ) ;
#222 = EDGE_LOOP ( 'NONE', ( #27, #89, #172, #3 ) ) ;
#223 = DIRECTION ( 'NONE',  ( 0.0000000000000000000, -1.000000000000000000, -3.107937555406663600E-016 ) ) ;
#224 = CIRCLE ( 'NONE', #76, 12.69999999999999900 ) ;
#225 = SPHERICAL_SURFACE ( 'NONE', #37, 121.2799999999999200 ) ;
#226 =( NAMED_UNIT ( * ) PLANE_ANGLE_UNIT ( ) SI_UNIT ( $, .RADIAN. ) );
#227 =( GEOMETRIC_REPRESENTATION_CONTEXT ( 3 ) GLOBAL_UNCERTAINTY_ASSIGNED_CONTEXT ( ( #21 ) ) GLOBAL_UNIT_ASSIGNED_CONTEXT ( ( #66, #226, #135 ) ) REPRESENTATION_CONTEXT ( 'NONE', 'WORKASPACE' ) );
#228 = CC_DESIGN_APPROVAL ( #125, ( #199 ) ) ;
#229 = DIRECTION ( 'NONE',  ( 8.659560562357801100E-017, -0.7071067811867815000, -0.7071067811863135400 ) ) ;
#230 = CARTESIAN_POINT ( 'NONE',  ( 0.0000000000000000000, 12.55857864376261500, 1.348025360810953400 ) ) ;
#231 = PLANE ( 'NONE',  #275 ) ;
#232 = SECURITY_CLASSIFICATION ( '', '', #106 ) ;
#233 = PERSON_AND_ORGANIZATION ( #256, #137 ) ;
#234 = VERTEX_POINT ( 'NONE', #143 ) ;
#235 = ORIENTED_EDGE ( 'NONE', *, *, #43, .T. ) ;
#236 = CARTESIAN_POINT ( 'NONE',  ( 0.0000000000000000000, -1.269316745802962100E-016, 1.206604004573724700 ) ) ;
#237 = ADVANCED_FACE ( 'NONE', ( #117 ), #41, .T. ) ;
#238 = EDGE_CURVE ( 'NONE', #259, #234, #224, .T. ) ;
#239 = CARTESIAN_POINT ( 'NONE',  ( 1.555301434917138800E-015, -12.70000000000000300, -1.858578643762697200 ) ) ;
#240 = LOCAL_TIME ( 11, 26, 51.00000000000000000, #242 ) ;
#241 = DIRECTION ( 'NONE',  ( 0.0000000000000000000, 0.0000000000000000000, 1.000000000000000000 ) ) ;
#242 = COORDINATED_UNIVERSAL_TIME_OFFSET ( 5, 0, .BEHIND. ) ;
#243 = CARTESIAN_POINT ( 'NONE',  ( 0.0000000000000000000, -1.269316745802962100E-016, 1.206604004573724700 ) ) ;
#244 = APPROVAL_STATUS ( 'not_yet_approved' ) ;
#245 = DIRECTION ( 'NONE',  ( 0.0000000000000000000, -0.7071067811865412400, 0.7071067811865536800 ) ) ;
#246 = CALENDAR_DATE ( 2015, 10, 7 ) ;
#247 = EDGE_LOOP ( 'NONE', ( #183, #91, #71, #54 ) ) ;
#248 = CARTESIAN_POINT ( 'NONE',  ( 0.0000000000000000000, 8.547752349680204900E-016, -2.000000000000004000 ) ) ;
#249 = EDGE_CURVE ( 'NONE', #285, #138, #87, .T. ) ;
#250 = ADVANCED_FACE ( 'NONE', ( #127 ), #225, .T. ) ;
#251 = APPROVAL_PERSON_ORGANIZATION ( #233, #220, #294 ) ;
#252 = DIRECTION ( 'NONE',  ( 0.0000000000000000000, -3.061515884555943100E-016, 1.000000000000000000 ) ) ;
#253 = CIRCLE ( 'NONE', #282, 121.2799999999999200 ) ;
#254 = VERTEX_POINT ( 'NONE', #255 ) ;
#255 = CARTESIAN_POINT ( 'NONE',  ( 1.546641874354783800E-015, 12.55857864376269400, -2.000000000000000000 ) ) ;
#256 = PERSON ( 'UNSPECIFIED', 'UNSPECIFIED', 'UNSPECIFIED', ('UNSPECIFIED'), ('UNSPECIFIED'), ('UNSPECIFIED') ) ;
#257 = APPROVAL_ROLE ( '' ) ;
#258 = DIRECTION ( 'NONE',  ( 0.0000000000000000000, 1.000000000000000000, 3.432830097579435800E-016 ) ) ;
#259 = VERTEX_POINT ( 'NONE', #39 ) ;
#260 = COORDINATED_UNIVERSAL_TIME_OFFSET ( 5, 0, .BEHIND. ) ;
#261 = VERTEX_POINT ( 'NONE', #13 ) ;
#262 = CC_DESIGN_PERSON_AND_ORGANIZATION_ASSIGNMENT ( #93, #213, ( #109 ) ) ;
#263 = CARTESIAN_POINT ( 'NONE',  ( 0.0000000000000000000, 12.69999999999999800, 1.206604004573728500 ) ) ;
#264 = LINE ( 'NONE', #216, #210 ) ;
#265 = DIRECTION ( 'NONE',  ( -0.0000000000000000000, 3.061515884555943100E-016, -1.000000000000000000 ) ) ;
#266 = CALENDAR_DATE ( 2015, 10, 7 ) ;
#267 = DIRECTION ( 'NONE',  ( 0.0000000000000000000, 0.0000000000000000000, 1.000000000000000000 ) ) ;
#268 = DIRECTION ( 'NONE',  ( -0.0000000000000000000, 3.061515884555943100E-016, -1.000000000000000000 ) ) ;
#269 = CLOSED_SHELL ( 'NONE', ( #99, #237, #23, #118, #299, #250, #141, #300, #44 ) ) ;
#270 = DIRECTION ( 'NONE',  ( 0.0000000000000000000, -1.000000000000000000, -3.107937555406663600E-016 ) ) ;
#271 = APPLICATION_PROTOCOL_DEFINITION ( 'international standard', 'config_control_design', 1994, #22 ) ;
#272 = VECTOR ( 'NONE', #229, 1000.000000000000000 ) ;
#273 = CC_DESIGN_APPROVAL ( #220, ( #232 ) ) ;
#274 = VERTEX_POINT ( 'NONE', #186 ) ;
#275 = AXIS2_PLACEMENT_3D ( 'NONE', #30, #154, #152 ) ;
#276 = DIRECTION ( 'NONE',  ( 0.0000000000000000000, 1.000000000000000000, 3.432830097579435800E-016 ) ) ;
#277 = CONICAL_SURFACE ( 'NONE', #217, 12.55857864376269400, 0.7853981633974391800 ) ;
#278 = ORIENTED_EDGE ( 'NONE', *, *, #16, .T. ) ;
#279 = DIRECTION ( 'NONE',  ( 1.000000000000000000, 0.0000000000000000000, 0.0000000000000000000 ) ) ;
#280 = LOCAL_TIME ( 11, 26, 51.00000000000000000, #212 ) ;
#281 = CC_DESIGN_SECURITY_CLASSIFICATION ( #232, ( #199 ) ) ;
#282 = AXIS2_PLACEMENT_3D ( 'NONE', #6, #85, #55 ) ;
#283 = CARTESIAN_POINT ( 'NONE',  ( 1.555301434917138400E-015, -12.69999999999999900, -2.000000000000004000 ) ) ;
#284 = DIRECTION ( 'NONE',  ( -1.000000000000000000, 0.0000000000000000000, 0.0000000000000000000 ) ) ;
#285 = VERTEX_POINT ( 'NONE', #81 ) ;
#286 = VERTEX_POINT ( 'NONE', #98 ) ;
#287 = AXIS2_PLACEMENT_3D ( 'NONE', #243, #116, #7 ) ;
#288 = ORIENTED_EDGE ( 'NONE', *, *, #136, .T. ) ;
#289 = CARTESIAN_POINT ( 'NONE',  ( 1.555301434917138200E-015, -12.69999999999999800, 1.206604004573720700 ) ) ;
#290 = CARTESIAN_POINT ( 'NONE',  ( 0.0000000000000000000, -1.702280474338671400E-016, 1.348025360810949400 ) ) ;
#291 = EDGE_CURVE ( 'NONE', #259, #51, #165, .T. ) ;
#292 = PERSON_AND_ORGANIZATION ( #256, #137 ) ;
#293 = ORIENTED_EDGE ( 'NONE', *, *, #291, .F. ) ;
#294 = APPROVAL_ROLE ( '' ) ;
#295 = FACE_OUTER_BOUND ( 'NONE', #45, .T. ) ;
#296 = DATE_TIME_ROLE ( 'creation_date' ) ;
#297 = ORIENTED_EDGE ( 'NONE', *, *, #238, .T. ) ;
#298 = CARTESIAN_POINT ( 'NONE',  ( 0.0000000000000000000, 1.448219474030343200E-014, -119.2799999999998300 ) ) ;
#299 = ADVANCED_FACE ( 'NONE', ( #82 ), #231, .T. ) ;
#300 = ADVANCED_FACE ( 'NONE', ( #168 ), #207, .T. ) ;
#301 = DIRECTION ( 'NONE',  ( -0.0000000000000000000, 3.061515884555943100E-016, -1.000000000000000000 ) ) ;
ENDSEC;
END-ISO-10303-21;
