ISO-10303-21;
HEADER;
FILE_DESCRIPTION (( 'STEP AP203' ),
    '1' );
FILE_NAME ('Web Model 48201_84476.step',
    '2019-01-07T15:23:22',
    ( '' ),
    ( '' ),
    'SwSTEP 2.0',
    'SolidWorks 2016',
    '' );
FILE_SCHEMA (( 'CONFIG_CONTROL_DESIGN' ));
ENDSEC;

DATA;
#1 = CALENDAR_DATE ( 2019, 7, 1 ) ;
#2 = ORIENTED_EDGE ( 'NONE', *, *, #177, .T. ) ;
#3 = PRODUCT_DEFINITION_FORMATION_WITH_SPECIFIED_SOURCE ( 'ANY', '', #180, .NOT_KNOWN. ) ;
#4 = DIRECTION ( 'NONE',  ( 0.0000000000000000000, 0.0000000000000000000, 1.000000000000000000 ) ) ;
#5 = ORIENTED_EDGE ( 'NONE', *, *, #12, .T. ) ;
#6 =( LENGTH_UNIT ( ) NAMED_UNIT ( * ) SI_UNIT ( .MILLI., .METRE. ) );
#7 = EDGE_LOOP ( 'NONE', ( #41, #89, #141, #2 ) ) ;
#8 = CARTESIAN_POINT ( 'NONE',  ( -12.50000000000000000, -12.50000000000000000, -1.000000000000000000 ) ) ;
#9 = DIRECTION ( 'NONE',  ( 0.0000000000000000000, 0.0000000000000000000, 1.000000000000000000 ) ) ;
#10 = CARTESIAN_POINT ( 'NONE',  ( -12.50000000000000000, 12.50000000000000000, 1.000000000000000000 ) ) ;
#11 = PERSON_AND_ORGANIZATION ( #77, #182 ) ;
#12 = EDGE_CURVE ( 'NONE', #226, #109, #166, .T. ) ;
#13 = DIRECTION ( 'NONE',  ( -0.0000000000000000000, -1.000000000000000000, -0.0000000000000000000 ) ) ;
#14 = APPROVAL_PERSON_ORGANIZATION ( #61, #157, #192 ) ;
#15 = ORIENTED_EDGE ( 'NONE', *, *, #115, .F. ) ;
#16 = ORIENTED_EDGE ( 'NONE', *, *, #190, .F. ) ;
#17 = APPROVAL ( #66, 'UNSPECIFIED' ) ;
#18 = DIRECTION ( 'NONE',  ( 0.0000000000000000000, 1.000000000000000000, 0.0000000000000000000 ) ) ;
#19 = VERTEX_POINT ( 'NONE', #236 ) ;
#20 = CC_DESIGN_SECURITY_CLASSIFICATION ( #130, ( #3 ) ) ;
#21 = FACE_OUTER_BOUND ( 'NONE', #218, .T. ) ;
#22 = CARTESIAN_POINT ( 'NONE',  ( -12.50000000000000000, -12.50000000000000000, 1.000000000000000000 ) ) ;
#23 = ADVANCED_BREP_SHAPE_REPRESENTATION ( 'Web Model 48201_84476', ( #71, #215 ), #80 ) ;
#24 = EDGE_CURVE ( 'NONE', #226, #217, #43, .T. ) ;
#25 = CARTESIAN_POINT ( 'NONE',  ( -12.50000000000000000, -12.50000000000000000, 1.000000000000000000 ) ) ;
#26 = VECTOR ( 'NONE', #28, 1000.000000000000000 ) ;
#27 = CARTESIAN_POINT ( 'NONE',  ( 0.0000000000000000000, 0.0000000000000000000, -1.000000000000000000 ) ) ;
#28 = DIRECTION ( 'NONE',  ( -1.000000000000000000, -0.0000000000000000000, -0.0000000000000000000 ) ) ;
#29 = LINE ( 'NONE', #210, #231 ) ;
#30 = VERTEX_POINT ( 'NONE', #112 ) ;
#31 = CARTESIAN_POINT ( 'NONE',  ( 12.50000000000000000, -12.50000000000000000, -1.000000000000000000 ) ) ;
#32 = CC_DESIGN_DATE_AND_TIME_ASSIGNMENT ( #87, #171, ( #162 ) ) ;
#33 = ADVANCED_FACE ( 'NONE', ( #204 ), #55, .F. ) ;
#34 = CARTESIAN_POINT ( 'NONE',  ( -12.50000000000000000, 12.50000000000000000, 1.000000000000000000 ) ) ;
#35 = ORIENTED_EDGE ( 'NONE', *, *, #219, .F. ) ;
#36 = PRODUCT_RELATED_PRODUCT_CATEGORY ( 'detail', '', ( #180 ) ) ;
#37 = FACE_OUTER_BOUND ( 'NONE', #146, .T. ) ;
#38 = ORIENTED_EDGE ( 'NONE', *, *, #177, .F. ) ;
#39 = DIRECTION ( 'NONE',  ( 0.0000000000000000000, -0.0000000000000000000, 1.000000000000000000 ) ) ;
#40 = PERSON_AND_ORGANIZATION ( #77, #182 ) ;
#41 = ORIENTED_EDGE ( 'NONE', *, *, #235, .T. ) ;
#42 = PLANE ( 'NONE',  #116 ) ;
#43 = LINE ( 'NONE', #234, #108 ) ;
#44 = ORIENTED_EDGE ( 'NONE', *, *, #12, .F. ) ;
#45 = CC_DESIGN_PERSON_AND_ORGANIZATION_ASSIGNMENT ( #154, #224, ( #3 ) ) ;
#46 = PERSON_AND_ORGANIZATION ( #77, #182 ) ;
#47 = DIRECTION ( 'NONE',  ( 1.000000000000000000, 0.0000000000000000000, 0.0000000000000000000 ) ) ;
#48 = ORIENTED_EDGE ( 'NONE', *, *, #24, .T. ) ;
#49 = DATE_TIME_ROLE ( 'classification_date' ) ;
#50 = DIRECTION ( 'NONE',  ( 0.0000000000000000000, -1.000000000000000000, 0.0000000000000000000 ) ) ;
#51 = EDGE_CURVE ( 'NONE', #213, #149, #225, .T. ) ;
#52 =( NAMED_UNIT ( * ) SI_UNIT ( $, .STERADIAN. ) SOLID_ANGLE_UNIT ( ) );
#53 = EDGE_LOOP ( 'NONE', ( #142, #128, #15, #196 ) ) ;
#54 = LOCAL_TIME ( 10, 23, 22.00000000000000000, #175 ) ;
#55 = PLANE ( 'NONE',  #194 ) ;
#56 = APPROVAL_DATE_TIME ( #73, #157 ) ;
#57 = EDGE_CURVE ( 'NONE', #149, #19, #85, .T. ) ;
#58 = VECTOR ( 'NONE', #125, 1000.000000000000000 ) ;
#59 = ORIENTED_EDGE ( 'NONE', *, *, #190, .T. ) ;
#60 = CC_DESIGN_PERSON_AND_ORGANIZATION_ASSIGNMENT ( #40, #143, ( #130 ) ) ;
#61 = PERSON_AND_ORGANIZATION ( #77, #182 ) ;
#62 = ORIENTED_EDGE ( 'NONE', *, *, #198, .F. ) ;
#63 = COORDINATED_UNIVERSAL_TIME_OFFSET ( 5, 0, .BEHIND. ) ;
#64 = APPROVAL_ROLE ( '' ) ;
#65 = ORIENTED_EDGE ( 'NONE', *, *, #235, .F. ) ;
#66 = APPROVAL_STATUS ( 'not_yet_approved' ) ;
#67 = APPROVAL_STATUS ( 'not_yet_approved' ) ;
#68 = APPLICATION_PROTOCOL_DEFINITION ( 'international standard', 'config_control_design', 1994, #98 ) ;
#69 = DESIGN_CONTEXT ( 'detailed design', #98, 'design' ) ;
#70 = DIRECTION ( 'NONE',  ( -0.0000000000000000000, -0.0000000000000000000, -1.000000000000000000 ) ) ;
#71 = MANIFOLD_SOLID_BREP ( 'Boss-Extrude1', #200 ) ;
#72 = AXIS2_PLACEMENT_3D ( 'NONE', #27, #174, #86 ) ;
#73 = DATE_AND_TIME ( #203, #82 ) ;
#74 = DIRECTION ( 'NONE',  ( -0.0000000000000000000, -0.0000000000000000000, -1.000000000000000000 ) ) ;
#75 = CARTESIAN_POINT ( 'NONE',  ( 12.50000000000000000, -12.50000000000000000, 1.000000000000000000 ) ) ;
#76 = VECTOR ( 'NONE', #181, 1000.000000000000000 ) ;
#77 = PERSON ( 'UNSPECIFIED', 'UNSPECIFIED', 'UNSPECIFIED', ('UNSPECIFIED'), ('UNSPECIFIED'), ('UNSPECIFIED') ) ;
#78 = LINE ( 'NONE', #22, #123 ) ;
#79 = CARTESIAN_POINT ( 'NONE',  ( 12.50000000000000000, -12.50000000000000000, 1.000000000000000000 ) ) ;
#80 =( GEOMETRIC_REPRESENTATION_CONTEXT ( 3 ) GLOBAL_UNCERTAINTY_ASSIGNED_CONTEXT ( ( #150 ) ) GLOBAL_UNIT_ASSIGNED_CONTEXT ( ( #6, #209, #52 ) ) REPRESENTATION_CONTEXT ( 'NONE', 'WORKASPACE' ) );
#81 = PLANE ( 'NONE',  #122 ) ;
#82 = LOCAL_TIME ( 10, 23, 22.00000000000000000, #151 ) ;
#83 = FACE_OUTER_BOUND ( 'NONE', #221, .T. ) ;
#84 = PLANE ( 'NONE',  #72 ) ;
#85 = LINE ( 'NONE', #183, #131 ) ;
#86 = DIRECTION ( 'NONE',  ( -1.000000000000000000, 0.0000000000000000000, -0.0000000000000000000 ) ) ;
#87 = DATE_AND_TIME ( #186, #106 ) ;
#88 = LINE ( 'NONE', #140, #132 ) ;
#89 = ORIENTED_EDGE ( 'NONE', *, *, #57, .F. ) ;
#90 = CARTESIAN_POINT ( 'NONE',  ( -12.50000000000000000, -12.50000000000000000, 1.000000000000000000 ) ) ;
#91 = AXIS2_PLACEMENT_3D ( 'NONE', #25, #97, #227 ) ;
#92 = DATE_AND_TIME ( #152, #113 ) ;
#93 = FACE_OUTER_BOUND ( 'NONE', #7, .T. ) ;
#94 = CC_DESIGN_PERSON_AND_ORGANIZATION_ASSIGNMENT ( #158, #187, ( #3 ) ) ;
#95 = CARTESIAN_POINT ( 'NONE',  ( 0.0000000000000000000, 0.0000000000000000000, 1.000000000000000000 ) ) ;
#96 = ORIENTED_EDGE ( 'NONE', *, *, #211, .F. ) ;
#97 = DIRECTION ( 'NONE',  ( 1.000000000000000000, 0.0000000000000000000, 0.0000000000000000000 ) ) ;
#98 = APPLICATION_CONTEXT ( 'configuration controlled 3d designs of mechanical parts and assemblies' ) ;
#99 = APPROVAL_PERSON_ORGANIZATION ( #46, #107, #64 ) ;
#100 = ORIENTED_EDGE ( 'NONE', *, *, #211, .T. ) ;
#101 = APPROVAL_ROLE ( '' ) ;
#102 = DIRECTION ( 'NONE',  ( -1.000000000000000000, -0.0000000000000000000, -0.0000000000000000000 ) ) ;
#103 = EDGE_CURVE ( 'NONE', #217, #30, #229, .T. ) ;
#104 = CARTESIAN_POINT ( 'NONE',  ( -12.50000000000000000, 12.50000000000000000, 1.000000000000000000 ) ) ;
#105 = DIRECTION ( 'NONE',  ( 0.0000000000000000000, -0.0000000000000000000, -1.000000000000000000 ) ) ;
#106 = LOCAL_TIME ( 10, 23, 22.00000000000000000, #237 ) ;
#107 = APPROVAL ( #223, 'UNSPECIFIED' ) ;
#108 = VECTOR ( 'NONE', #74, 1000.000000000000000 ) ;
#109 = VERTEX_POINT ( 'NONE', #205 ) ;
#110 = ADVANCED_FACE ( 'NONE', ( #83 ), #42, .F. ) ;
#111 = AXIS2_PLACEMENT_3D ( 'NONE', #212, #50, #105 ) ;
#112 = CARTESIAN_POINT ( 'NONE',  ( 12.50000000000000000, 12.50000000000000000, -1.000000000000000000 ) ) ;
#113 = LOCAL_TIME ( 10, 23, 22.00000000000000000, #63 ) ;
#114 = ORIENTED_EDGE ( 'NONE', *, *, #103, .T. ) ;
#115 = EDGE_CURVE ( 'NONE', #149, #226, #78, .T. ) ;
#116 = AXIS2_PLACEMENT_3D ( 'NONE', #79, #222, #4 ) ;
#117 = DIRECTION ( 'NONE',  ( -1.000000000000000000, 0.0000000000000000000, -0.0000000000000000000 ) ) ;
#118 = FACE_OUTER_BOUND ( 'NONE', #233, .T. ) ;
#119 = PERSON_AND_ORGANIZATION_ROLE ( 'creator' ) ;
#120 = SECURITY_CLASSIFICATION_LEVEL ( 'unclassified' ) ;
#121 = CARTESIAN_POINT ( 'NONE',  ( -12.50000000000000000, 12.50000000000000000, -1.000000000000000000 ) ) ;
#122 = AXIS2_PLACEMENT_3D ( 'NONE', #95, #220, #117 ) ;
#123 = VECTOR ( 'NONE', #155, 1000.000000000000000 ) ;
#124 = ORIENTED_EDGE ( 'NONE', *, *, #115, .T. ) ;
#125 = DIRECTION ( 'NONE',  ( -0.0000000000000000000, -0.0000000000000000000, -1.000000000000000000 ) ) ;
#126 = APPLICATION_PROTOCOL_DEFINITION ( 'international standard', 'config_control_design', 1994, #172 ) ;
#127 = ADVANCED_FACE ( 'NONE', ( #37 ), #81, .F. ) ;
#128 = ORIENTED_EDGE ( 'NONE', *, *, #24, .F. ) ;
#129 = ORIENTED_EDGE ( 'NONE', *, *, #51, .T. ) ;
#130 = SECURITY_CLASSIFICATION ( '', '', #120 ) ;
#131 = VECTOR ( 'NONE', #202, 1000.000000000000000 ) ;
#132 = VECTOR ( 'NONE', #144, 1000.000000000000000 ) ;
#133 = DIRECTION ( 'NONE',  ( 0.0000000000000000000, 1.000000000000000000, 0.0000000000000000000 ) ) ;
#134 = CC_DESIGN_APPROVAL ( #157, ( #130 ) ) ;
#135 = PLANE ( 'NONE',  #91 ) ;
#136 = PERSON_AND_ORGANIZATION ( #77, #182 ) ;
#137 = LINE ( 'NONE', #104, #58 ) ;
#138 = CARTESIAN_POINT ( 'NONE',  ( 0.0000000000000000000, 0.0000000000000000000, 0.0000000000000000000 ) ) ;
#139 = DATE_AND_TIME ( #207, #199 ) ;
#140 = CARTESIAN_POINT ( 'NONE',  ( -12.50000000000000000, -12.50000000000000000, -1.000000000000000000 ) ) ;
#141 = ORIENTED_EDGE ( 'NONE', *, *, #51, .F. ) ;
#142 = ORIENTED_EDGE ( 'NONE', *, *, #198, .T. ) ;
#143 = PERSON_AND_ORGANIZATION_ROLE ( 'classification_officer' ) ;
#144 = DIRECTION ( 'NONE',  ( 1.000000000000000000, 0.0000000000000000000, 0.0000000000000000000 ) ) ;
#145 = CC_DESIGN_DATE_AND_TIME_ASSIGNMENT ( #92, #49, ( #130 ) ) ;
#146 = EDGE_LOOP ( 'NONE', ( #5, #59, #129, #124 ) ) ;
#147 = APPROVAL_DATE_TIME ( #139, #17 ) ;
#148 = VECTOR ( 'NONE', #13, 1000.000000000000000 ) ;
#149 = VERTEX_POINT ( 'NONE', #208 ) ;
#150 = UNCERTAINTY_MEASURE_WITH_UNIT (LENGTH_MEASURE( 1.000000000000000100E-005 ), #6, 'distance_accuracy_value', 'NONE');
#151 = COORDINATED_UNIVERSAL_TIME_OFFSET ( 5, 0, .BEHIND. ) ;
#152 = CALENDAR_DATE ( 2019, 7, 1 ) ;
#153 = LINE ( 'NONE', #8, #148 ) ;
#154 = PERSON_AND_ORGANIZATION ( #77, #182 ) ;
#155 = DIRECTION ( 'NONE',  ( 1.000000000000000000, 0.0000000000000000000, 0.0000000000000000000 ) ) ;
#156 = ORIENTED_EDGE ( 'NONE', *, *, #103, .F. ) ;
#157 = APPROVAL ( #67, 'UNSPECIFIED' ) ;
#158 = PERSON_AND_ORGANIZATION ( #77, #182 ) ;
#159 = PERSON_AND_ORGANIZATION ( #77, #182 ) ;
#160 = PLANE ( 'NONE',  #111 ) ;
#161 = CARTESIAN_POINT ( 'NONE',  ( 12.50000000000000000, -12.50000000000000000, 1.000000000000000000 ) ) ;
#162 = PRODUCT_DEFINITION ( 'UNKNOWN', '', #3, #69 ) ;
#163 = APPROVAL_PERSON_ORGANIZATION ( #11, #17, #101 ) ;
#164 = PRODUCT_DEFINITION_SHAPE ( 'NONE', 'NONE',  #162 ) ;
#165 = MECHANICAL_CONTEXT ( 'NONE', #172, 'mechanical' ) ;
#166 = LINE ( 'NONE', #75, #170 ) ;
#167 = COORDINATED_UNIVERSAL_TIME_OFFSET ( 5, 0, .BEHIND. ) ;
#168 = DATE_AND_TIME ( #1, #54 ) ;
#169 = CARTESIAN_POINT ( 'NONE',  ( 12.50000000000000000, -12.50000000000000000, -1.000000000000000000 ) ) ;
#170 = VECTOR ( 'NONE', #197, 1000.000000000000000 ) ;
#171 = DATE_TIME_ROLE ( 'creation_date' ) ;
#172 = APPLICATION_CONTEXT ( 'configuration controlled 3d designs of mechanical parts and assemblies' ) ;
#173 = LINE ( 'NONE', #10, #216 ) ;
#174 = DIRECTION ( 'NONE',  ( 0.0000000000000000000, 0.0000000000000000000, -1.000000000000000000 ) ) ;
#175 = COORDINATED_UNIVERSAL_TIME_OFFSET ( 5, 0, .BEHIND. ) ;
#176 = ADVANCED_FACE ( 'NONE', ( #93 ), #135, .F. ) ;
#177 = EDGE_CURVE ( 'NONE', #213, #189, #137, .T. ) ;
#178 = VECTOR ( 'NONE', #133, 1000.000000000000000 ) ;
#179 = CC_DESIGN_APPROVAL ( #107, ( #162 ) ) ;
#180 = PRODUCT ( 'Web Model 48201_84476', 'Web Model 48201_84476', '', ( #165 ) ) ;
#181 = DIRECTION ( 'NONE',  ( -0.0000000000000000000, -1.000000000000000000, -0.0000000000000000000 ) ) ;
#182 = ORGANIZATION ( 'UNSPECIFIED', 'UNSPECIFIED', '' ) ;
#183 = CARTESIAN_POINT ( 'NONE',  ( -12.50000000000000000, -12.50000000000000000, 1.000000000000000000 ) ) ;
#184 = APPROVAL_DATE_TIME ( #168, #107 ) ;
#185 = CARTESIAN_POINT ( 'NONE',  ( -12.50000000000000000, 12.50000000000000000, -1.000000000000000000 ) ) ;
#186 = CALENDAR_DATE ( 2019, 7, 1 ) ;
#187 = PERSON_AND_ORGANIZATION_ROLE ( 'creator' ) ;
#188 = ORIENTED_EDGE ( 'NONE', *, *, #219, .T. ) ;
#189 = VERTEX_POINT ( 'NONE', #121 ) ;
#190 = EDGE_CURVE ( 'NONE', #109, #213, #173, .T. ) ;
#191 = PERSON_AND_ORGANIZATION_ROLE ( 'design_owner' ) ;
#192 = APPROVAL_ROLE ( '' ) ;
#193 = CC_DESIGN_PERSON_AND_ORGANIZATION_ASSIGNMENT ( #159, #191, ( #180 ) ) ;
#194 = AXIS2_PLACEMENT_3D ( 'NONE', #90, #18, #39 ) ;
#195 = SHAPE_DEFINITION_REPRESENTATION ( #164, #23 ) ;
#196 = ORIENTED_EDGE ( 'NONE', *, *, #57, .T. ) ;
#197 = DIRECTION ( 'NONE',  ( 0.0000000000000000000, 1.000000000000000000, 0.0000000000000000000 ) ) ;
#198 = EDGE_CURVE ( 'NONE', #19, #217, #88, .T. ) ;
#199 = LOCAL_TIME ( 10, 23, 22.00000000000000000, #167 ) ;
#200 = CLOSED_SHELL ( 'NONE', ( #110, #232, #176, #33, #127, #230 ) ) ;
#201 = CARTESIAN_POINT ( 'NONE',  ( -12.50000000000000000, -12.50000000000000000, 1.000000000000000000 ) ) ;
#202 = DIRECTION ( 'NONE',  ( -0.0000000000000000000, -0.0000000000000000000, -1.000000000000000000 ) ) ;
#203 = CALENDAR_DATE ( 2019, 7, 1 ) ;
#204 = FACE_OUTER_BOUND ( 'NONE', #53, .T. ) ;
#205 = CARTESIAN_POINT ( 'NONE',  ( 12.50000000000000000, 12.50000000000000000, 1.000000000000000000 ) ) ;
#206 = CC_DESIGN_APPROVAL ( #17, ( #3 ) ) ;
#207 = CALENDAR_DATE ( 2019, 7, 1 ) ;
#208 = CARTESIAN_POINT ( 'NONE',  ( -12.50000000000000000, -12.50000000000000000, 1.000000000000000000 ) ) ;
#209 =( NAMED_UNIT ( * ) PLANE_ANGLE_UNIT ( ) SI_UNIT ( $, .RADIAN. ) );
#210 = CARTESIAN_POINT ( 'NONE',  ( 12.50000000000000000, 12.50000000000000000, 1.000000000000000000 ) ) ;
#211 = EDGE_CURVE ( 'NONE', #109, #30, #29, .T. ) ;
#212 = CARTESIAN_POINT ( 'NONE',  ( -12.50000000000000000, 12.50000000000000000, 1.000000000000000000 ) ) ;
#213 = VERTEX_POINT ( 'NONE', #34 ) ;
#214 = LINE ( 'NONE', #185, #26 ) ;
#215 = AXIS2_PLACEMENT_3D ( 'NONE', #138, #9, #47 ) ;
#216 = VECTOR ( 'NONE', #102, 1000.000000000000000 ) ;
#217 = VERTEX_POINT ( 'NONE', #31 ) ;
#218 = EDGE_LOOP ( 'NONE', ( #156, #62, #65, #35 ) ) ;
#219 = EDGE_CURVE ( 'NONE', #30, #189, #214, .T. ) ;
#220 = DIRECTION ( 'NONE',  ( 0.0000000000000000000, 0.0000000000000000000, -1.000000000000000000 ) ) ;
#221 = EDGE_LOOP ( 'NONE', ( #114, #96, #44, #48 ) ) ;
#222 = DIRECTION ( 'NONE',  ( -1.000000000000000000, 0.0000000000000000000, 0.0000000000000000000 ) ) ;
#223 = APPROVAL_STATUS ( 'not_yet_approved' ) ;
#224 = PERSON_AND_ORGANIZATION_ROLE ( 'design_supplier' ) ;
#225 = LINE ( 'NONE', #201, #76 ) ;
#226 = VERTEX_POINT ( 'NONE', #161 ) ;
#227 = DIRECTION ( 'NONE',  ( 0.0000000000000000000, 0.0000000000000000000, -1.000000000000000000 ) ) ;
#228 = CC_DESIGN_PERSON_AND_ORGANIZATION_ASSIGNMENT ( #136, #119, ( #162 ) ) ;
#229 = LINE ( 'NONE', #169, #178 ) ;
#230 = ADVANCED_FACE ( 'NONE', ( #21 ), #84, .T. ) ;
#231 = VECTOR ( 'NONE', #70, 1000.000000000000000 ) ;
#232 = ADVANCED_FACE ( 'NONE', ( #118 ), #160, .F. ) ;
#233 = EDGE_LOOP ( 'NONE', ( #188, #38, #16, #100 ) ) ;
#234 = CARTESIAN_POINT ( 'NONE',  ( 12.50000000000000000, -12.50000000000000000, 1.000000000000000000 ) ) ;
#235 = EDGE_CURVE ( 'NONE', #189, #19, #153, .T. ) ;
#236 = CARTESIAN_POINT ( 'NONE',  ( -12.50000000000000000, -12.50000000000000000, -1.000000000000000000 ) ) ;
#237 = COORDINATED_UNIVERSAL_TIME_OFFSET ( 5, 0, .BEHIND. ) ;
ENDSEC;
END-ISO-10303-21;
