ISO-10303-21;
HEADER;
FILE_DESCRIPTION (( 'STEP AP203' ),
    '1' );
FILE_NAME ('24974-E0W.STEP',
    '2015-04-28T20:36:35',
    ( 'Admin' ),
    ( '' ),
    'SwSTEP 2.0',
    'SolidWorks 2014',
    '' );
FILE_SCHEMA (( 'CONFIG_CONTROL_DESIGN' ));
ENDSEC;

DATA;
#1 = ADVANCED_FACE ( 'NONE', ( #278 ), #13, .T. ) ;
#2 = ORIENTED_EDGE ( 'NONE', *, *, #238, .T. ) ;
#3 = DESIGN_CONTEXT ( 'detailed design', #191, 'design' ) ;
#4 = FACE_OUTER_BOUND ( 'NONE', #294, .T. ) ;
#5 = ORIENTED_EDGE ( 'NONE', *, *, #81, .T. ) ;
#6 = LOCAL_TIME ( 16, 36, 35.00000000000000000, #38 ) ;
#7 = DIRECTION ( 'NONE',  ( 1.000000000000000000, 0.0000000000000000000, 0.0000000000000000000 ) ) ;
#8 = DIRECTION ( 'NONE',  ( -0.0000000000000000000, -0.0000000000000000000, 1.000000000000000000 ) ) ;
#9 = DIRECTION ( 'NONE',  ( -0.0000000000000000000, -0.0000000000000000000, 1.000000000000000000 ) ) ;
#10 = AXIS2_PLACEMENT_3D ( 'NONE', #283, #96, #17 ) ;
#11 = ADVANCED_FACE ( 'NONE', ( #266 ), #80, .T. ) ;
#12 = CALENDAR_DATE ( 2015, 28, 4 ) ;
#13 = TOROIDAL_SURFACE ( 'NONE', #32, 0.006393968114355545700, 23.00000000000000000 ) ;
#14 = EDGE_CURVE ( 'NONE', #209, #247, #275, .T. ) ;
#15 = VECTOR ( 'NONE', #208, 1000.000000000000100 ) ;
#16 = SECURITY_CLASSIFICATION_LEVEL ( 'unclassified' ) ;
#17 = DIRECTION ( 'NONE',  ( 1.000000000000000000, 0.0000000000000000000, 0.0000000000000000000 ) ) ;
#18 = VECTOR ( 'NONE', #8, 1000.000000000000000 ) ;
#19 = FACE_OUTER_BOUND ( 'NONE', #67, .T. ) ;
#20 = ORIENTED_EDGE ( 'NONE', *, *, #172, .F. ) ;
#21 = CC_DESIGN_APPROVAL ( #268, ( #154 ) ) ;
#22 = PERSON_AND_ORGANIZATION ( #104, #118 ) ;
#23 = DIRECTION ( 'NONE',  ( 1.000000000000000000, 0.0000000000000000000, 0.0000000000000000000 ) ) ;
#24 = CARTESIAN_POINT ( 'NONE',  ( -0.006393968114355545700, 7.830352585095756900E-019, -20.08999911124284700 ) ) ;
#25 = CARTESIAN_POINT ( 'NONE',  ( 0.0000000000000000000, 0.0000000000000000000, -0.8171513748957623900 ) ) ;
#26 = EDGE_LOOP ( 'NONE', ( #163, #105, #40, #69 ) ) ;
#27 = APPROVAL_ROLE ( '' ) ;
#28 = APPROVAL_PERSON_ORGANIZATION ( #95, #268, #93 ) ;
#29 = DIRECTION ( 'NONE',  ( 1.000000000000000000, 0.0000000000000000000, 0.0000000000000000000 ) ) ;
#30 = ORIENTED_EDGE ( 'NONE', *, *, #110, .T. ) ;
#31 = CARTESIAN_POINT ( 'NONE',  ( 0.006393968114355545700, 0.0000000000000000000, -20.08999911124284700 ) ) ;
#32 = AXIS2_PLACEMENT_3D ( 'NONE', #113, #33, #59 ) ;
#33 = DIRECTION ( 'NONE',  ( -0.0000000000000000000, -0.0000000000000000000, 1.000000000000000000 ) ) ;
#34 = ADVANCED_BREP_SHAPE_REPRESENTATION ( '24974-E0W', ( #281, #135 ), #72 ) ;
#35 = DATE_AND_TIME ( #90, #243 ) ;
#36 = ORIENTED_EDGE ( 'NONE', *, *, #301, .F. ) ;
#37 = DIRECTION ( 'NONE',  ( 1.000000000000000000, 0.0000000000000000000, 0.0000000000000000000 ) ) ;
#38 = COORDINATED_UNIVERSAL_TIME_OFFSET ( 5, 0, .BEHIND. ) ;
#39 = APPROVAL_STATUS ( 'not_yet_approved' ) ;
#40 = ORIENTED_EDGE ( 'NONE', *, *, #130, .T. ) ;
#41 = CONICAL_SURFACE ( 'NONE', #166, 12.69999999999999900, 0.7853981633974545000 ) ;
#42 = DATE_TIME_ROLE ( 'creation_date' ) ;
#43 = CC_DESIGN_PERSON_AND_ORGANIZATION_ASSIGNMENT ( #22, #134, ( #216 ) ) ;
#44 = VECTOR ( 'NONE', #184, 1000.000000000000000 ) ;
#45 = AXIS2_PLACEMENT_3D ( 'NONE', #82, #280, #89 ) ;
#46 = ORIENTED_EDGE ( 'NONE', *, *, #295, .F. ) ;
#47 = ADVANCED_FACE ( 'NONE', ( #300 ), #256, .T. ) ;
#48 = VERTEX_POINT ( 'NONE', #103 ) ;
#49 = APPROVAL_STATUS ( 'not_yet_approved' ) ;
#50 = DIRECTION ( 'NONE',  ( -1.000000000000000000, 1.224646799147353200E-016, 0.0000000000000000000 ) ) ;
#51 = CARTESIAN_POINT ( 'NONE',  ( 0.0000000000000000000, 0.0000000000000000000, -2.910000000000002800 ) ) ;
#52 = AXIS2_PLACEMENT_3D ( 'NONE', #222, #76, #144 ) ;
#53 = COORDINATED_UNIVERSAL_TIME_OFFSET ( 5, 0, .BEHIND. ) ;
#54 = DIRECTION ( 'NONE',  ( -0.0000000000000000000, -0.0000000000000000000, 1.000000000000000000 ) ) ;
#55 = APPROVAL_DATE_TIME ( #66, #257 ) ;
#56 = CARTESIAN_POINT ( 'NONE',  ( 0.0000000000000000000, 0.0000000000000000000, -2.910000000000002800 ) ) ;
#57 = EDGE_CURVE ( 'NONE', #88, #165, #289, .T. ) ;
#58 = PLANE ( 'NONE',  #270 ) ;
#59 = DIRECTION ( 'NONE',  ( 1.000000000000000000, 0.0000000000000000000, 0.0000000000000000000 ) ) ;
#60 = CC_DESIGN_APPROVAL ( #196, ( #99 ) ) ;
#61 = PRODUCT_RELATED_PRODUCT_CATEGORY ( 'detail', '', ( #263 ) ) ;
#62 = DIRECTION ( 'NONE',  ( 1.000000000000000000, 0.0000000000000000000, 0.0000000000000000000 ) ) ;
#63 = CALENDAR_DATE ( 2015, 28, 4 ) ;
#64 = DATE_AND_TIME ( #63, #185 ) ;
#65 = ORIENTED_EDGE ( 'NONE', *, *, #14, .F. ) ;
#66 = DATE_AND_TIME ( #251, #291 ) ;
#67 = EDGE_LOOP ( 'NONE', ( #65, #284, #287, #20 ) ) ;
#68 = CARTESIAN_POINT ( 'NONE',  ( 0.0000000000000000000, 0.0000000000000000000, -2.909999999999999700 ) ) ;
#69 = ORIENTED_EDGE ( 'NONE', *, *, #242, .F. ) ;
#70 = ORIENTED_EDGE ( 'NONE', *, *, #57, .F. ) ;
#71 = AXIS2_PLACEMENT_3D ( 'NONE', #31, #260, #203 ) ;
#72 =( GEOMETRIC_REPRESENTATION_CONTEXT ( 3 ) GLOBAL_UNCERTAINTY_ASSIGNED_CONTEXT ( ( #274 ) ) GLOBAL_UNIT_ASSIGNED_CONTEXT ( ( #182, #117, #101 ) ) REPRESENTATION_CONTEXT ( 'NONE', 'WORKASPACE' ) );
#73 = AXIS2_PLACEMENT_3D ( 'NONE', #24, #84, #50 ) ;
#74 = ORIENTED_EDGE ( 'NONE', *, *, #110, .F. ) ;
#75 = ORIENTED_EDGE ( 'NONE', *, *, #94, .F. ) ;
#76 = DIRECTION ( 'NONE',  ( -0.0000000000000000000, -0.0000000000000000000, 1.000000000000000000 ) ) ;
#77 = APPLICATION_PROTOCOL_DEFINITION ( 'international standard', 'config_control_design', 1994, #191 ) ;
#78 = LINE ( 'NONE', #153, #141 ) ;
#79 = COORDINATED_UNIVERSAL_TIME_OFFSET ( 5, 0, .BEHIND. ) ;
#80 = CONICAL_SURFACE ( 'NONE', #197, 12.55857864376269000, 0.7853981633974360700 ) ;
#81 = EDGE_CURVE ( 'NONE', #273, #165, #128, .T. ) ;
#82 = CARTESIAN_POINT ( 'NONE',  ( 0.0000000000000000000, 0.0000000000000000000, -0.8171513748957623900 ) ) ;
#83 = CIRCLE ( 'NONE', #235, 12.55857864376269000 ) ;
#84 = DIRECTION ( 'NONE',  ( 1.224646799147353200E-016, 1.000000000000000000, 0.0000000000000000000 ) ) ;
#85 = AXIS2_PLACEMENT_3D ( 'NONE', #286, #297, #221 ) ;
#86 = ORIENTED_EDGE ( 'NONE', *, *, #175, .T. ) ;
#87 = APPLICATION_PROTOCOL_DEFINITION ( 'international standard', 'config_control_design', 1994, #201 ) ;
#88 = VERTEX_POINT ( 'NONE', #259 ) ;
#89 = DIRECTION ( 'NONE',  ( 1.000000000000000000, 0.0000000000000000000, 0.0000000000000000000 ) ) ;
#90 = CALENDAR_DATE ( 2015, 28, 4 ) ;
#91 = AXIS2_PLACEMENT_3D ( 'NONE', #245, #168, #37 ) ;
#92 = EDGE_CURVE ( 'NONE', #209, #88, #200, .T. ) ;
#93 = APPROVAL_ROLE ( '' ) ;
#94 = EDGE_CURVE ( 'NONE', #165, #88, #109, .T. ) ;
#95 = PERSON_AND_ORGANIZATION ( #104, #118 ) ;
#96 = DIRECTION ( 'NONE',  ( -0.0000000000000000000, -0.0000000000000000000, 1.000000000000000000 ) ) ;
#97 = CC_DESIGN_PERSON_AND_ORGANIZATION_ASSIGNMENT ( #180, #188, ( #99 ) ) ;
#98 = ORIENTED_EDGE ( 'NONE', *, *, #112, .T. ) ;
#99 = PRODUCT_DEFINITION_FORMATION_WITH_SPECIFIED_SOURCE ( 'ANY', '', #263, .NOT_KNOWN. ) ;
#100 = ORIENTED_EDGE ( 'NONE', *, *, #242, .T. ) ;
#101 =( NAMED_UNIT ( * ) SI_UNIT ( $, .STERADIAN. ) SOLID_ANGLE_UNIT ( ) );
#102 = LINE ( 'NONE', #206, #44 ) ;
#103 = CARTESIAN_POINT ( 'NONE',  ( 12.69999999999999900, 0.0000000000000000000, -2.768578643762689600 ) ) ;
#104 = PERSON ( 'UNSPECIFIED', 'UNSPECIFIED', 'UNSPECIFIED', ('UNSPECIFIED'), ('UNSPECIFIED'), ('UNSPECIFIED') ) ;
#105 = ORIENTED_EDGE ( 'NONE', *, *, #301, .T. ) ;
#106 = EDGE_LOOP ( 'NONE', ( #137, #2, #143, #167 ) ) ;
#107 = DIRECTION ( 'NONE',  ( 1.000000000000000000, 0.0000000000000000000, 0.0000000000000000000 ) ) ;
#108 = APPROVAL_PERSON_ORGANIZATION ( #171, #196, #27 ) ;
#109 = CIRCLE ( 'NONE', #210, 12.69999999999999900 ) ;
#110 = EDGE_CURVE ( 'NONE', #48, #88, #102, .T. ) ;
#111 = LOCAL_TIME ( 16, 36, 35.00000000000000000, #115 ) ;
#112 = EDGE_CURVE ( 'NONE', #48, #273, #174, .T. ) ;
#113 = CARTESIAN_POINT ( 'NONE',  ( 0.0000000000000000000, 0.0000000000000000000, -20.08999911124284700 ) ) ;
#114 = DATE_TIME_ROLE ( 'classification_date' ) ;
#115 = COORDINATED_UNIVERSAL_TIME_OFFSET ( 5, 0, .BEHIND. ) ;
#116 = CARTESIAN_POINT ( 'NONE',  ( 12.69999999999999900, 1.555301434917138400E-015, -0.9585727311330685100 ) ) ;
#117 =( NAMED_UNIT ( * ) PLANE_ANGLE_UNIT ( ) SI_UNIT ( $, .RADIAN. ) );
#118 = ORGANIZATION ( 'UNSPECIFIED', 'UNSPECIFIED', '' ) ;
#119 = CARTESIAN_POINT ( 'NONE',  ( 0.0000000000000000000, 0.0000000000000000000, -0.9585727311330685100 ) ) ;
#120 = LINE ( 'NONE', #169, #15 ) ;
#121 = FACE_OUTER_BOUND ( 'NONE', #106, .T. ) ;
#122 = ORIENTED_EDGE ( 'NONE', *, *, #161, .T. ) ;
#123 = CARTESIAN_POINT ( 'NONE',  ( -12.69999999999999900, 0.0000000000000000000, -0.9585727311330685100 ) ) ;
#124 = ORIENTED_EDGE ( 'NONE', *, *, #161, .F. ) ;
#125 = DIRECTION ( 'NONE',  ( 1.000000000000000000, 0.0000000000000000000, 0.0000000000000000000 ) ) ;
#126 = CC_DESIGN_PERSON_AND_ORGANIZATION_ASSIGNMENT ( #265, #288, ( #99 ) ) ;
#127 = ORIENTED_EDGE ( 'NONE', *, *, #81, .F. ) ;
#128 = LINE ( 'NONE', #160, #18 ) ;
#129 = CIRCLE ( 'NONE', #71, 23.00000000000000000 ) ;
#130 = EDGE_CURVE ( 'NONE', #228, #48, #78, .T. ) ;
#131 = CARTESIAN_POINT ( 'NONE',  ( 0.0000000000000000000, 0.0000000000000000000, 0.0000000000000000000 ) ) ;
#132 = CIRCLE ( 'NONE', #179, 12.55857864376269000 ) ;
#133 = DIRECTION ( 'NONE',  ( -0.0000000000000000000, -0.0000000000000000000, 1.000000000000000000 ) ) ;
#134 = PERSON_AND_ORGANIZATION_ROLE ( 'creator' ) ;
#135 = AXIS2_PLACEMENT_3D ( 'NONE', #131, #248, #230 ) ;
#136 = EDGE_LOOP ( 'NONE', ( #127, #100, #30, #75 ) ) ;
#137 = ORIENTED_EDGE ( 'NONE', *, *, #295, .T. ) ;
#138 = APPROVAL_STATUS ( 'not_yet_approved' ) ;
#139 = APPROVAL_PERSON_ORGANIZATION ( #276, #257, #202 ) ;
#140 = SHAPE_DEFINITION_REPRESENTATION ( #298, #34 ) ;
#141 = VECTOR ( 'NONE', #264, 1000.000000000000100 ) ;
#142 = CC_DESIGN_PERSON_AND_ORGANIZATION_ASSIGNMENT ( #205, #261, ( #154 ) ) ;
#143 = ORIENTED_EDGE ( 'NONE', *, *, #112, .F. ) ;
#144 = DIRECTION ( 'NONE',  ( 1.000000000000000000, 0.0000000000000000000, 0.0000000000000000000 ) ) ;
#145 = COORDINATED_UNIVERSAL_TIME_OFFSET ( 5, 0, .BEHIND. ) ;
#146 = CARTESIAN_POINT ( 'NONE',  ( 0.0000000000000000000, 0.0000000000000000000, -0.9585727311330685100 ) ) ;
#147 = DIRECTION ( 'NONE',  ( 0.0000000000000000000, 0.0000000000000000000, -1.000000000000000000 ) ) ;
#148 = VERTEX_POINT ( 'NONE', #224 ) ;
#149 = ORIENTED_EDGE ( 'NONE', *, *, #94, .T. ) ;
#150 = DIRECTION ( 'NONE',  ( -0.0000000000000000000, -0.0000000000000000000, 1.000000000000000000 ) ) ;
#151 = CONICAL_SURFACE ( 'NONE', #85, 12.69999999999999900, 0.7853981633974545000 ) ;
#152 = CC_DESIGN_DATE_AND_TIME_ASSIGNMENT ( #225, #42, ( #216 ) ) ;
#153 = CARTESIAN_POINT ( 'NONE',  ( 12.55857864376269000, 0.0000000000000000000, -2.910000000000002800 ) ) ;
#154 = SECURITY_CLASSIFICATION ( '', '', #16 ) ;
#155 = ADVANCED_FACE ( 'NONE', ( #121 ), #214, .T. ) ;
#156 = CYLINDRICAL_SURFACE ( 'NONE', #52, 12.69999999999999900 ) ;
#157 = CARTESIAN_POINT ( 'NONE',  ( 0.0000000000000000000, 0.0000000000000000000, -0.9585727311330685100 ) ) ;
#158 = VERTEX_POINT ( 'NONE', #253 ) ;
#159 = MECHANICAL_CONTEXT ( 'NONE', #201, 'mechanical' ) ;
#160 = CARTESIAN_POINT ( 'NONE',  ( -12.69999999999999900, 1.555301434917138400E-015, 35.94000182510855300 ) ) ;
#161 = EDGE_CURVE ( 'NONE', #209, #148, #129, .T. ) ;
#162 = ADVANCED_FACE ( 'NONE', ( #19 ), #41, .T. ) ;
#163 = ORIENTED_EDGE ( 'NONE', *, *, #238, .F. ) ;
#164 = CARTESIAN_POINT ( 'NONE',  ( -12.55857864376269700, 1.537982313792429300E-015, -0.8171513748957623900 ) ) ;
#165 = VERTEX_POINT ( 'NONE', #271 ) ;
#166 = AXIS2_PLACEMENT_3D ( 'NONE', #157, #147, #254 ) ;
#167 = ORIENTED_EDGE ( 'NONE', *, *, #130, .F. ) ;
#168 = DIRECTION ( 'NONE',  ( -0.0000000000000000000, -0.0000000000000000000, 1.000000000000000000 ) ) ;
#169 = CARTESIAN_POINT ( 'NONE',  ( -12.55857864376269000, 1.537982313792428700E-015, -2.910000000000002800 ) ) ;
#170 = LINE ( 'NONE', #123, #285 ) ;
#171 = PERSON_AND_ORGANIZATION ( #104, #118 ) ;
#172 = EDGE_CURVE ( 'NONE', #247, #165, #170, .T. ) ;
#173 = ORIENTED_EDGE ( 'NONE', *, *, #175, .F. ) ;
#174 = CIRCLE ( 'NONE', #217, 12.69999999999999900 ) ;
#175 = EDGE_CURVE ( 'NONE', #247, #209, #195, .T. ) ;
#176 = CC_DESIGN_PERSON_AND_ORGANIZATION_ASSIGNMENT ( #194, #211, ( #263 ) ) ;
#177 = ADVANCED_FACE ( 'NONE', ( #4 ), #151, .T. ) ;
#178 = DIRECTION ( 'NONE',  ( 1.000000000000000000, 0.0000000000000000000, 0.0000000000000000000 ) ) ;
#179 = AXIS2_PLACEMENT_3D ( 'NONE', #56, #9, #290 ) ;
#180 = PERSON_AND_ORGANIZATION ( #104, #118 ) ;
#181 = DIRECTION ( 'NONE',  ( 0.7071067811865519000, 8.659560562354987100E-017, -0.7071067811865431300 ) ) ;
#182 =( LENGTH_UNIT ( ) NAMED_UNIT ( * ) SI_UNIT ( .MILLI., .METRE. ) );
#183 = DIRECTION ( 'NONE',  ( -0.0000000000000000000, -0.0000000000000000000, 1.000000000000000000 ) ) ;
#184 = DIRECTION ( 'NONE',  ( -0.0000000000000000000, -0.0000000000000000000, 1.000000000000000000 ) ) ;
#185 = LOCAL_TIME ( 16, 36, 35.00000000000000000, #53 ) ;
#186 = ORIENTED_EDGE ( 'NONE', *, *, #14, .T. ) ;
#187 = AXIS2_PLACEMENT_3D ( 'NONE', #146, #229, #223 ) ;
#188 = PERSON_AND_ORGANIZATION_ROLE ( 'design_supplier' ) ;
#189 = AXIS2_PLACEMENT_3D ( 'NONE', #272, #227, #62 ) ;
#190 = ORIENTED_EDGE ( 'NONE', *, *, #193, .F. ) ;
#191 = APPLICATION_CONTEXT ( 'configuration controlled 3d designs of mechanical parts and assemblies' ) ;
#192 = CARTESIAN_POINT ( 'NONE',  ( -12.69999999999999900, 1.555301434917138400E-015, -2.768578643762689600 ) ) ;
#193 = EDGE_CURVE ( 'NONE', #247, #148, #277, .T. ) ;
#194 = PERSON_AND_ORGANIZATION ( #104, #118 ) ;
#195 = CIRCLE ( 'NONE', #199, 12.55857864376269200 ) ;
#196 = APPROVAL ( #138, 'UNSPECIFIED' ) ;
#197 = AXIS2_PLACEMENT_3D ( 'NONE', #51, #54, #29 ) ;
#198 = EDGE_LOOP ( 'NONE', ( #98, #5, #70, #74 ) ) ;
#199 = AXIS2_PLACEMENT_3D ( 'NONE', #25, #150, #125 ) ;
#200 = LINE ( 'NONE', #116, #204 ) ;
#201 = APPLICATION_CONTEXT ( 'configuration controlled 3d designs of mechanical parts and assemblies' ) ;
#202 = APPROVAL_ROLE ( '' ) ;
#203 = DIRECTION ( 'NONE',  ( 0.0000000000000000000, 0.0000000000000000000, -1.000000000000000000 ) ) ;
#204 = VECTOR ( 'NONE', #181, 1000.000000000000000 ) ;
#205 = PERSON_AND_ORGANIZATION ( #104, #118 ) ;
#206 = CARTESIAN_POINT ( 'NONE',  ( 12.69999999999999900, 0.0000000000000000000, 35.94000182510855300 ) ) ;
#207 = FACE_OUTER_BOUND ( 'NONE', #198, .T. ) ;
#208 = DIRECTION ( 'NONE',  ( -0.7071067811865388000, 8.659560562354826900E-017, 0.7071067811865561200 ) ) ;
#209 = VERTEX_POINT ( 'NONE', #237 ) ;
#210 = AXIS2_PLACEMENT_3D ( 'NONE', #119, #133, #279 ) ;
#211 = PERSON_AND_ORGANIZATION_ROLE ( 'design_owner' ) ;
#212 = EDGE_LOOP ( 'NONE', ( #186, #219, #124 ) ) ;
#213 = ADVANCED_FACE ( 'NONE', ( #207 ), #250, .T. ) ;
#214 = CONICAL_SURFACE ( 'NONE', #189, 12.55857864376269000, 0.7853981633974360700 ) ;
#215 = DIRECTION ( 'NONE',  ( 0.0000000000000000000, -0.0000000000000000000, 1.000000000000000000 ) ) ;
#216 = PRODUCT_DEFINITION ( 'UNKNOWN', '', #99, #3 ) ;
#217 = AXIS2_PLACEMENT_3D ( 'NONE', #234, #269, #107 ) ;
#218 = CARTESIAN_POINT ( 'NONE',  ( 0.0000000000000000000, 0.0000000000000000000, -2.768578643762689600 ) ) ;
#219 = ORIENTED_EDGE ( 'NONE', *, *, #193, .T. ) ;
#220 = ORIENTED_EDGE ( 'NONE', *, *, #172, .T. ) ;
#221 = DIRECTION ( 'NONE',  ( -1.000000000000000000, 0.0000000000000000000, 0.0000000000000000000 ) ) ;
#222 = CARTESIAN_POINT ( 'NONE',  ( 0.0000000000000000000, 0.0000000000000000000, 35.94000182510855300 ) ) ;
#223 = DIRECTION ( 'NONE',  ( 1.000000000000000000, 0.0000000000000000000, 0.0000000000000000000 ) ) ;
#224 = CARTESIAN_POINT ( 'NONE',  ( 0.0000000000000000000, 0.0000000000000000000, 2.909999999999999300 ) ) ;
#225 = DATE_AND_TIME ( #255, #111 ) ;
#226 = AXIS2_PLACEMENT_3D ( 'NONE', #218, #240, #7 ) ;
#227 = DIRECTION ( 'NONE',  ( -0.0000000000000000000, -0.0000000000000000000, 1.000000000000000000 ) ) ;
#228 = VERTEX_POINT ( 'NONE', #241 ) ;
#229 = DIRECTION ( 'NONE',  ( -0.0000000000000000000, -0.0000000000000000000, 1.000000000000000000 ) ) ;
#230 = DIRECTION ( 'NONE',  ( 1.000000000000000000, 0.0000000000000000000, 0.0000000000000000000 ) ) ;
#231 = FACE_OUTER_BOUND ( 'NONE', #249, .T. ) ;
#232 = CC_DESIGN_DATE_AND_TIME_ASSIGNMENT ( #64, #114, ( #154 ) ) ;
#233 = CARTESIAN_POINT ( 'NONE',  ( 0.0000000000000000000, 0.0000000000000000000, -2.910000000000002800 ) ) ;
#234 = CARTESIAN_POINT ( 'NONE',  ( 0.0000000000000000000, 0.0000000000000000000, -2.768578643762689600 ) ) ;
#235 = AXIS2_PLACEMENT_3D ( 'NONE', #233, #183, #23 ) ;
#236 = DATE_AND_TIME ( #12, #6 ) ;
#237 = CARTESIAN_POINT ( 'NONE',  ( 12.55857864376269700, 0.0000000000000000000, -0.8171513748957623900 ) ) ;
#238 = EDGE_CURVE ( 'NONE', #158, #273, #120, .T. ) ;
#239 = CIRCLE ( 'NONE', #226, 12.69999999999999900 ) ;
#240 = DIRECTION ( 'NONE',  ( -0.0000000000000000000, -0.0000000000000000000, 1.000000000000000000 ) ) ;
#241 = CARTESIAN_POINT ( 'NONE',  ( 12.55857864376269000, 0.0000000000000000000, -2.910000000000002800 ) ) ;
#242 = EDGE_CURVE ( 'NONE', #273, #48, #239, .T. ) ;
#243 = LOCAL_TIME ( 16, 36, 35.00000000000000000, #79 ) ;
#244 = CC_DESIGN_APPROVAL ( #257, ( #216 ) ) ;
#245 = CARTESIAN_POINT ( 'NONE',  ( 0.0000000000000000000, 0.0000000000000000000, -20.08999911124284700 ) ) ;
#246 = FACE_OUTER_BOUND ( 'NONE', #136, .T. ) ;
#247 = VERTEX_POINT ( 'NONE', #164 ) ;
#248 = DIRECTION ( 'NONE',  ( 0.0000000000000000000, 0.0000000000000000000, 1.000000000000000000 ) ) ;
#249 = EDGE_LOOP ( 'NONE', ( #46, #36 ) ) ;
#250 = CYLINDRICAL_SURFACE ( 'NONE', #10, 12.69999999999999900 ) ;
#251 = CALENDAR_DATE ( 2015, 28, 4 ) ;
#252 = EDGE_LOOP ( 'NONE', ( #190, #86, #122 ) ) ;
#253 = CARTESIAN_POINT ( 'NONE',  ( -12.55857864376269000, 1.546641874354783400E-015, -2.910000000000002800 ) ) ;
#254 = DIRECTION ( 'NONE',  ( -1.000000000000000000, 0.0000000000000000000, 0.0000000000000000000 ) ) ;
#255 = CALENDAR_DATE ( 2015, 28, 4 ) ;
#256 = TOROIDAL_SURFACE ( 'NONE', #91, 0.006393968114355545700, 23.00000000000000000 ) ;
#257 = APPROVAL ( #39, 'UNSPECIFIED' ) ;
#258 = APPROVAL_DATE_TIME ( #236, #268 ) ;
#259 = CARTESIAN_POINT ( 'NONE',  ( 12.69999999999999900, 0.0000000000000000000, -0.9585727311330685100 ) ) ;
#260 = DIRECTION ( 'NONE',  ( 0.0000000000000000000, -1.000000000000000000, 0.0000000000000000000 ) ) ;
#261 = PERSON_AND_ORGANIZATION_ROLE ( 'classification_officer' ) ;
#262 = DIRECTION ( 'NONE',  ( -0.7071067811865519000, 0.0000000000000000000, -0.7071067811865431300 ) ) ;
#263 = PRODUCT ( '24974-E0W', '24974-E0W', '', ( #159 ) ) ;
#264 = DIRECTION ( 'NONE',  ( 0.7071067811865388000, 0.0000000000000000000, 0.7071067811865561200 ) ) ;
#265 = PERSON_AND_ORGANIZATION ( #104, #118 ) ;
#266 = FACE_OUTER_BOUND ( 'NONE', #26, .T. ) ;
#267 = ADVANCED_FACE ( 'NONE', ( #231 ), #58, .F. ) ;
#268 = APPROVAL ( #49, 'UNSPECIFIED' ) ;
#269 = DIRECTION ( 'NONE',  ( -0.0000000000000000000, -0.0000000000000000000, 1.000000000000000000 ) ) ;
#270 = AXIS2_PLACEMENT_3D ( 'NONE', #68, #215, #178 ) ;
#271 = CARTESIAN_POINT ( 'NONE',  ( -12.69999999999999900, 1.555301434917138400E-015, -0.9585727311330685100 ) ) ;
#272 = CARTESIAN_POINT ( 'NONE',  ( 0.0000000000000000000, 0.0000000000000000000, -2.910000000000002800 ) ) ;
#273 = VERTEX_POINT ( 'NONE', #192 ) ;
#274 = UNCERTAINTY_MEASURE_WITH_UNIT (LENGTH_MEASURE( 1.000000000000000100E-005 ), #182, 'distance_accuracy_value', 'NONE');
#275 = CIRCLE ( 'NONE', #45, 12.55857864376269200 ) ;
#276 = PERSON_AND_ORGANIZATION ( #104, #118 ) ;
#277 = CIRCLE ( 'NONE', #73, 23.00000000000000000 ) ;
#278 = FACE_OUTER_BOUND ( 'NONE', #212, .T. ) ;
#279 = DIRECTION ( 'NONE',  ( 1.000000000000000000, 0.0000000000000000000, 0.0000000000000000000 ) ) ;
#280 = DIRECTION ( 'NONE',  ( -0.0000000000000000000, -0.0000000000000000000, 1.000000000000000000 ) ) ;
#281 = MANIFOLD_SOLID_BREP ( '24974-001-1-solid1', #296 ) ;
#282 = ADVANCED_FACE ( 'NONE', ( #246 ), #156, .T. ) ;
#283 = CARTESIAN_POINT ( 'NONE',  ( 0.0000000000000000000, 0.0000000000000000000, 35.94000182510855300 ) ) ;
#284 = ORIENTED_EDGE ( 'NONE', *, *, #92, .T. ) ;
#285 = VECTOR ( 'NONE', #262, 1000.000000000000000 ) ;
#286 = CARTESIAN_POINT ( 'NONE',  ( 0.0000000000000000000, 0.0000000000000000000, -0.9585727311330685100 ) ) ;
#287 = ORIENTED_EDGE ( 'NONE', *, *, #57, .T. ) ;
#288 = PERSON_AND_ORGANIZATION_ROLE ( 'creator' ) ;
#289 = CIRCLE ( 'NONE', #187, 12.69999999999999900 ) ;
#290 = DIRECTION ( 'NONE',  ( 1.000000000000000000, 0.0000000000000000000, 0.0000000000000000000 ) ) ;
#291 = LOCAL_TIME ( 16, 36, 35.00000000000000000, #145 ) ;
#292 = ORIENTED_EDGE ( 'NONE', *, *, #92, .F. ) ;
#293 = APPROVAL_DATE_TIME ( #35, #196 ) ;
#294 = EDGE_LOOP ( 'NONE', ( #292, #173, #220, #149 ) ) ;
#295 = EDGE_CURVE ( 'NONE', #228, #158, #132, .T. ) ;
#296 = CLOSED_SHELL ( 'NONE', ( #162, #213, #155, #1, #47, #267, #11, #282, #177 ) ) ;
#297 = DIRECTION ( 'NONE',  ( 0.0000000000000000000, 0.0000000000000000000, -1.000000000000000000 ) ) ;
#298 = PRODUCT_DEFINITION_SHAPE ( 'NONE', 'NONE',  #216 ) ;
#299 = CC_DESIGN_SECURITY_CLASSIFICATION ( #154, ( #99 ) ) ;
#300 = FACE_OUTER_BOUND ( 'NONE', #252, .T. ) ;
#301 = EDGE_CURVE ( 'NONE', #158, #228, #83, .T. ) ;
ENDSEC;
END-ISO-10303-21;
