ISO-10303-21;
HEADER;
FILE_DESCRIPTION (( 'STEP AP214' ),
    '1' );
FILE_NAME ('4515-E0W.STEP',
    '2009-12-21T17:07:22',
    ( ' ' ),
    ( ' ' ),
    'SwSTEP 2.0',
    'SolidWorks 2009',
    '' );
FILE_SCHEMA (( 'AUTOMOTIVE_DESIGN' ));
ENDSEC;

DATA;
#1 = SHAPE_DEFINITION_REPRESENTATION ( #2, #230 ) ;
#2 = PRODUCT_DEFINITION_SHAPE ( 'NONE', 'NONE',  #260 ) ;
#3 = VECTOR ( 'NONE', #6, 1000.000000000000000 ) ;
#4 = LINE ( 'NONE', #9, #3 ) ;
#5 = CARTESIAN_POINT ( 'NONE',  ( 0.0000000000000000000, 0.0000000000000000000, -0.6496136856660008600 ) ) ;
#6 = DIRECTION ( 'NONE',  ( -0.0000000000000000000, -0.0000000000000000000, 1.000000000000000000 ) ) ;
#7 = DIRECTION ( 'NONE',  ( -0.0000000000000000000, -0.0000000000000000000, 1.000000000000000000 ) ) ;
#8 = DIRECTION ( 'NONE',  ( 1.000000000000000000, 0.0000000000000000000, 0.0000000000000000000 ) ) ;
#9 = CARTESIAN_POINT ( 'NONE',  ( 25.39999999999999900, 0.0000000000000000000, 4.308132045400366600 ) ) ;
#10 = CIRCLE ( 'NONE', #11, 25.39999999999999900 ) ;
#11 = AXIS2_PLACEMENT_3D ( 'NONE', #5, #7, #8 ) ;
#12 = EDGE_CURVE ( 'NONE', #38, #31, #4, .T. ) ;
#13 = ORIENTED_EDGE ( 'NONE', *, *, #26, .F. ) ;
#14 = CLOSED_SHELL ( 'NONE', ( #22, #42, #36, #55, #62 ) ) ;
#15 = ORIENTED_EDGE ( 'NONE', *, *, #16, .T. ) ;
#16 = EDGE_CURVE ( 'NONE', #58, #18, #66, .T. ) ;
#17 = ORIENTED_EDGE ( 'NONE', *, *, #53, .T. ) ;
#18 = VERTEX_POINT ( 'NONE', #73 ) ;
#19 = EDGE_CURVE ( 'NONE', #31, #37, #71, .T. ) ;
#20 = ORIENTED_EDGE ( 'NONE', *, *, #30, .T. ) ;
#21 = ORIENTED_EDGE ( 'NONE', *, *, #34, .F. ) ;
#22 = ADVANCED_FACE ( 'NONE', ( #77 ), #130, .T. ) ;
#23 = EDGE_LOOP ( 'NONE', ( #17, #15, #45, #13 ) ) ;
#24 = ORIENTED_EDGE ( 'NONE', *, *, #19, .F. ) ;
#25 = EDGE_CURVE ( 'NONE', #43, #58, #131, .T. ) ;
#26 = EDGE_CURVE ( 'NONE', #37, #50, #97, .T. ) ;
#27 = EDGE_LOOP ( 'NONE', ( #33, #44 ) ) ;
#28 = ORIENTED_EDGE ( 'NONE', *, *, #19, .T. ) ;
#29 = ORIENTED_EDGE ( 'NONE', *, *, #12, .T. ) ;
#30 = EDGE_CURVE ( 'NONE', #43, #38, #119, .T. ) ;
#31 = VERTEX_POINT ( 'NONE', #108 ) ;
#32 = ORIENTED_EDGE ( 'NONE', *, *, #12, .F. ) ;
#33 = ORIENTED_EDGE ( 'NONE', *, *, #57, .F. ) ;
#34 = EDGE_CURVE ( 'NONE', #18, #31, #82, .T. ) ;
#35 =( NAMED_UNIT ( * ) SI_UNIT ( $, .STERADIAN. ) SOLID_ANGLE_UNIT ( ) );
#36 = ADVANCED_FACE ( 'NONE', ( #83 ), #143, .T. ) ;
#37 = VERTEX_POINT ( 'NONE', #171 ) ;
#38 = VERTEX_POINT ( 'NONE', #176 ) ;
#39 = MANIFOLD_SOLID_BREP ( 'NONE', #14 ) ;
#40 = ORIENTED_EDGE ( 'NONE', *, *, #57, .T. ) ;
#41 = ORIENTED_EDGE ( 'NONE', *, *, #25, .T. ) ;
#42 = ADVANCED_FACE ( 'NONE', ( #167 ), #150, .T. ) ;
#43 = VERTEX_POINT ( 'NONE', #156 ) ;
#44 = ORIENTED_EDGE ( 'NONE', *, *, #30, .F. ) ;
#45 = ORIENTED_EDGE ( 'NONE', *, *, #46, .T. ) ;
#46 = EDGE_CURVE ( 'NONE', #18, #50, #136, .T. ) ;
#47 =( NAMED_UNIT ( * ) PLANE_ANGLE_UNIT ( ) SI_UNIT ( $, .RADIAN. ) );
#48 = EDGE_LOOP ( 'NONE', ( #49, #51, #28, #54 ) ) ;
#49 = ORIENTED_EDGE ( 'NONE', *, *, #46, .F. ) ;
#50 = VERTEX_POINT ( 'NONE', #157 ) ;
#51 = ORIENTED_EDGE ( 'NONE', *, *, #34, .T. ) ;
#52 = ORIENTED_EDGE ( 'NONE', *, *, #53, .F. ) ;
#53 = EDGE_CURVE ( 'NONE', #37, #58, #10, .T. ) ;
#54 = ORIENTED_EDGE ( 'NONE', *, *, #26, .T. ) ;
#55 = ADVANCED_FACE ( 'NONE', ( #227 ), #198, .T. ) ;
#56 = EDGE_LOOP ( 'NONE', ( #40, #41, #52, #24, #32 ) ) ;
#57 = EDGE_CURVE ( 'NONE', #38, #43, #194, .T. ) ;
#58 = VERTEX_POINT ( 'NONE', #232 ) ;
#59 = ORIENTED_EDGE ( 'NONE', *, *, #16, .F. ) ;
#60 = EDGE_LOOP ( 'NONE', ( #61, #20, #29, #21, #59 ) ) ;
#61 = ORIENTED_EDGE ( 'NONE', *, *, #25, .F. ) ;
#62 = ADVANCED_FACE ( 'NONE', ( #212 ), #205, .F. ) ;
#63 = DIRECTION ( 'NONE',  ( -0.0000000000000000000, -0.0000000000000000000, 1.000000000000000000 ) ) ;
#64 = CARTESIAN_POINT ( 'NONE',  ( 0.0000000000000000000, 0.0000000000000000000, -0.6496136856660008600 ) ) ;
#65 = AXIS2_PLACEMENT_3D ( 'NONE', #64, #63, #74 ) ;
#66 = CIRCLE ( 'NONE', #65, 25.39999999999999900 ) ;
#67 = DIRECTION ( 'NONE',  ( 1.000000000000000000, 0.0000000000000000000, 0.0000000000000000000 ) ) ;
#68 = DIRECTION ( 'NONE',  ( -0.0000000000000000000, -0.0000000000000000000, 1.000000000000000000 ) ) ;
#69 = CARTESIAN_POINT ( 'NONE',  ( 0.0000000000000000000, 0.0000000000000000000, -0.6496136856660008600 ) ) ;
#70 = AXIS2_PLACEMENT_3D ( 'NONE', #69, #68, #67 ) ;
#71 = CIRCLE ( 'NONE', #70, 25.39999999999999900 ) ;
#72 = UNCERTAINTY_MEASURE_WITH_UNIT (LENGTH_MEASURE( 1.000000000000000100E-005 ), #238, 'distance_accuracy_value', 'NONE');
#73 = CARTESIAN_POINT ( 'NONE',  ( -3.110500138708838600E-015, -25.40000000000000600, -0.6496136856660020800 ) ) ;
#74 = DIRECTION ( 'NONE',  ( 1.000000000000000000, 0.0000000000000000000, 0.0000000000000000000 ) ) ;
#75 = DIRECTION ( 'NONE',  ( 1.000000000000000000, 0.0000000000000000000, 0.0000000000000000000 ) ) ;
#76 = DIRECTION ( 'NONE',  ( -0.0000000000000000000, -0.0000000000000000000, 1.000000000000000000 ) ) ;
#77 = FACE_OUTER_BOUND ( 'NONE', #56, .T. ) ;
#78 = PRESENTATION_STYLE_ASSIGNMENT (( #120 ) ) ;
#79 = DIRECTION ( 'NONE',  ( -0.0000000000000000000, -0.0000000000000000000, 1.000000000000000000 ) ) ;
#80 = CARTESIAN_POINT ( 'NONE',  ( 0.0000000000000000000, 0.0000000000000000000, -0.6496136856660008600 ) ) ;
#81 = AXIS2_PLACEMENT_3D ( 'NONE', #80, #79, #107 ) ;
#82 = CIRCLE ( 'NONE', #81, 25.39999999999999900 ) ;
#83 = FACE_OUTER_BOUND ( 'NONE', #48, .T. ) ;
#84 = FILL_AREA_STYLE_COLOUR ( '', #88 ) ;
#85 =( NAMED_UNIT ( * ) PLANE_ANGLE_UNIT ( ) SI_UNIT ( $, .RADIAN. ) );
#86 = CARTESIAN_POINT ( 'NONE',  ( 0.0000000000000000000, 0.0000000000000000000, 4.308132045400366600 ) ) ;
#87 = AXIS2_PLACEMENT_3D ( 'NONE', #86, #76, #75 ) ;
#88 = COLOUR_RGB ( '',0.9568627450980391500, 0.9490196078431372100, 0.9607843137254902200 ) ;
#89 =( LENGTH_UNIT ( ) NAMED_UNIT ( * ) SI_UNIT ( .MILLI., .METRE. ) );
#90 = MECHANICAL_DESIGN_GEOMETRIC_PRESENTATION_REPRESENTATION (  '', ( #92 ), #115 ) ;
#91 = PRESENTATION_LAYER_ASSIGNMENT (  '', '', ( #92 ) ) ;
#92 = STYLED_ITEM ( 'NONE', ( #100 ), #36 ) ;
#93 =( NAMED_UNIT ( * ) SI_UNIT ( $, .STERADIAN. ) SOLID_ANGLE_UNIT ( ) );
#94 = DIRECTION ( 'NONE',  ( 0.0000000000000000000, 0.0000000000000000000, -1.000000000000000000 ) ) ;
#95 = DIRECTION ( 'NONE',  ( 1.000000000000000000, 0.0000000000000000000, 0.0000000000000000000 ) ) ;
#96 = AXIS2_PLACEMENT_3D ( 'NONE', #112, #95, #94 ) ;
#97 = CIRCLE ( 'NONE', #96, 77.26000000000001900 ) ;
#98 = CARTESIAN_POINT ( 'NONE',  ( 0.0000000000000000000, 0.0000000000000000000, -3.644999999999999100 ) ) ;
#99 = SURFACE_STYLE_FILL_AREA ( #122 ) ;
#100 = PRESENTATION_STYLE_ASSIGNMENT (( #101 ) ) ;
#101 = SURFACE_STYLE_USAGE ( .BOTH. , #102 ) ;
#102 = SURFACE_SIDE_STYLE ('',( #103 ) ) ;
#103 = SURFACE_STYLE_FILL_AREA ( #104 ) ;
#104 = FILL_AREA_STYLE ('',( #105 ) ) ;
#105 = FILL_AREA_STYLE_COLOUR ( '', #106 ) ;
#106 = COLOUR_RGB ( '',0.9568627450980391500, 0.9490196078431372100, 0.9607843137254902200 ) ;
#107 = DIRECTION ( 'NONE',  ( 1.000000000000000000, 0.0000000000000000000, 0.0000000000000000000 ) ) ;
#108 = CARTESIAN_POINT ( 'NONE',  ( 25.39999999999999900, 0.0000000000000000000, -0.6496136856660008600 ) ) ;
#109 = DIRECTION ( 'NONE',  ( -0.0000000000000000000, -0.0000000000000000000, 1.000000000000000000 ) ) ;
#110 = VECTOR ( 'NONE', #109, 1000.000000000000000 ) ;
#111 = CARTESIAN_POINT ( 'NONE',  ( -25.39999999999999900, 3.110500138708838200E-015, 4.308132045400366600 ) ) ;
#112 = CARTESIAN_POINT ( 'NONE',  ( 0.0000000000000000000, 0.0000000000000000000, -73.61500000000000900 ) ) ;
#113 = UNCERTAINTY_MEASURE_WITH_UNIT (LENGTH_MEASURE( 1.000000000000000100E-005 ), #89, 'distance_accuracy_value', 'NONE');
#114 =( NAMED_UNIT ( * ) SI_UNIT ( $, .STERADIAN. ) SOLID_ANGLE_UNIT ( ) );
#115 =( GEOMETRIC_REPRESENTATION_CONTEXT ( 3 ) GLOBAL_UNCERTAINTY_ASSIGNED_CONTEXT ( ( #113 ) ) GLOBAL_UNIT_ASSIGNED_CONTEXT ( ( #89, #123, #114 ) ) REPRESENTATION_CONTEXT ( 'NONE', 'WORKASPACE' ) );
#116 = DIRECTION ( 'NONE',  ( 1.000000000000000000, 0.0000000000000000000, 0.0000000000000000000 ) ) ;
#117 = DIRECTION ( 'NONE',  ( -0.0000000000000000000, -0.0000000000000000000, 1.000000000000000000 ) ) ;
#118 = AXIS2_PLACEMENT_3D ( 'NONE', #98, #117, #116 ) ;
#119 = CIRCLE ( 'NONE', #118, 25.39999999999999900 ) ;
#120 = SURFACE_STYLE_USAGE ( .BOTH. , #129 ) ;
#121 = UNCERTAINTY_MEASURE_WITH_UNIT (LENGTH_MEASURE( 1.000000000000000100E-005 ), #125, 'distance_accuracy_value', 'NONE');
#122 = FILL_AREA_STYLE ('',( #84 ) ) ;
#123 =( NAMED_UNIT ( * ) PLANE_ANGLE_UNIT ( ) SI_UNIT ( $, .RADIAN. ) );
#124 = STYLED_ITEM ( 'NONE', ( #78 ), #22 ) ;
#125 =( LENGTH_UNIT ( ) NAMED_UNIT ( * ) SI_UNIT ( .MILLI., .METRE. ) );
#126 =( GEOMETRIC_REPRESENTATION_CONTEXT ( 3 ) GLOBAL_UNCERTAINTY_ASSIGNED_CONTEXT ( ( #121 ) ) GLOBAL_UNIT_ASSIGNED_CONTEXT ( ( #125, #85, #93 ) ) REPRESENTATION_CONTEXT ( 'NONE', 'WORKASPACE' ) );
#127 = MECHANICAL_DESIGN_GEOMETRIC_PRESENTATION_REPRESENTATION (  '', ( #124 ), #126 ) ;
#128 = PRESENTATION_LAYER_ASSIGNMENT (  '', '', ( #124 ) ) ;
#129 = SURFACE_SIDE_STYLE ('',( #99 ) ) ;
#130 = CYLINDRICAL_SURFACE ( 'NONE', #87, 25.39999999999999900 ) ;
#131 = LINE ( 'NONE', #111, #110 ) ;
#132 = COLOUR_RGB ( '',0.7960784313725489700, 0.8235294117647058400, 0.9372549019607843100 ) ;
#133 =( LENGTH_UNIT ( ) NAMED_UNIT ( * ) SI_UNIT ( .MILLI., .METRE. ) );
#134 = SURFACE_STYLE_USAGE ( .BOTH. , #151 ) ;
#135 = CARTESIAN_POINT ( 'NONE',  ( 0.0000000000000000000, 0.0000000000000000000, -73.61500000000000900 ) ) ;
#136 = CIRCLE ( 'NONE', #160, 77.26000000000000500 ) ;
#137 = UNCERTAINTY_MEASURE_WITH_UNIT (LENGTH_MEASURE( 1.000000000000000100E-005 ), #133, 'distance_accuracy_value', 'NONE');
#138 = DIRECTION ( 'NONE',  ( -1.000000000000000000, 0.0000000000000000000, 0.0000000000000000000 ) ) ;
#139 = PRESENTATION_STYLE_ASSIGNMENT (( #134 ) ) ;
#140 = PRESENTATION_LAYER_ASSIGNMENT (  '', '', ( #144 ) ) ;
#141 = SURFACE_STYLE_FILL_AREA ( #181 ) ;
#142 = MECHANICAL_DESIGN_GEOMETRIC_PRESENTATION_REPRESENTATION (  '', ( #144 ), #173 ) ;
#143 = SPHERICAL_SURFACE ( 'NONE', #147, 77.26000000000000500 ) ;
#144 = STYLED_ITEM ( 'NONE', ( #139 ), #39 ) ;
#145 = DIRECTION ( 'NONE',  ( 0.0000000000000000000, 1.000000000000000000, 0.0000000000000000000 ) ) ;
#146 = CARTESIAN_POINT ( 'NONE',  ( 0.0000000000000000000, 0.0000000000000000000, -73.61500000000000900 ) ) ;
#147 = AXIS2_PLACEMENT_3D ( 'NONE', #146, #138, #145 ) ;
#148 = UNCERTAINTY_MEASURE_WITH_UNIT (LENGTH_MEASURE( 1.000000000000000100E-005 ), #170, 'distance_accuracy_value', 'NONE');
#149 =( NAMED_UNIT ( * ) SI_UNIT ( $, .STERADIAN. ) SOLID_ANGLE_UNIT ( ) );
#150 = SPHERICAL_SURFACE ( 'NONE', #155, 77.26000000000000500 ) ;
#151 = SURFACE_SIDE_STYLE ('',( #141 ) ) ;
#152 = DIRECTION ( 'NONE',  ( 0.0000000000000000000, 1.000000000000000000, 0.0000000000000000000 ) ) ;
#153 = DIRECTION ( 'NONE',  ( -1.000000000000000000, 0.0000000000000000000, 0.0000000000000000000 ) ) ;
#154 = CARTESIAN_POINT ( 'NONE',  ( 0.0000000000000000000, 0.0000000000000000000, -73.61500000000000900 ) ) ;
#155 = AXIS2_PLACEMENT_3D ( 'NONE', #154, #153, #152 ) ;
#156 = CARTESIAN_POINT ( 'NONE',  ( -25.39999999999999900, 3.110500138708838200E-015, -3.644999999999999100 ) ) ;
#157 = CARTESIAN_POINT ( 'NONE',  ( 0.0000000000000000000, 4.730654344815844000E-015, 3.644999999999995600 ) ) ;
#158 = DIRECTION ( 'NONE',  ( -1.224606353822377300E-016, -1.000000000000000000, 0.0000000000000000000 ) ) ;
#159 = DIRECTION ( 'NONE',  ( -1.000000000000000000, 1.224606353822377300E-016, 0.0000000000000000000 ) ) ;
#160 = AXIS2_PLACEMENT_3D ( 'NONE', #135, #159, #158 ) ;
#161 = FILL_AREA_STYLE_COLOUR ( '', #132 ) ;
#162 = SURFACE_STYLE_USAGE ( .BOTH. , #163 ) ;
#163 = SURFACE_SIDE_STYLE ('',( #164 ) ) ;
#164 = SURFACE_STYLE_FILL_AREA ( #165 ) ;
#165 = FILL_AREA_STYLE ('',( #172 ) ) ;
#166 = COLOUR_RGB ( '',0.9568627450980391500, 0.9490196078431372100, 0.9607843137254902200 ) ;
#167 = FACE_OUTER_BOUND ( 'NONE', #23, .T. ) ;
#168 =( GEOMETRIC_REPRESENTATION_CONTEXT ( 3 ) GLOBAL_UNCERTAINTY_ASSIGNED_CONTEXT ( ( #148 ) ) GLOBAL_UNIT_ASSIGNED_CONTEXT ( ( #170, #175, #174 ) ) REPRESENTATION_CONTEXT ( 'NONE', 'WORKASPACE' ) );
#169 =( NAMED_UNIT ( * ) PLANE_ANGLE_UNIT ( ) SI_UNIT ( $, .RADIAN. ) );
#170 =( LENGTH_UNIT ( ) NAMED_UNIT ( * ) SI_UNIT ( .MILLI., .METRE. ) );
#171 = CARTESIAN_POINT ( 'NONE',  ( 0.0000000000000000000, 25.40000000000000600, -0.6496136856660020800 ) ) ;
#172 = FILL_AREA_STYLE_COLOUR ( '', #166 ) ;
#173 =( GEOMETRIC_REPRESENTATION_CONTEXT ( 3 ) GLOBAL_UNCERTAINTY_ASSIGNED_CONTEXT ( ( #137 ) ) GLOBAL_UNIT_ASSIGNED_CONTEXT ( ( #133, #169, #149 ) ) REPRESENTATION_CONTEXT ( 'NONE', 'WORKASPACE' ) );
#174 =( NAMED_UNIT ( * ) SI_UNIT ( $, .STERADIAN. ) SOLID_ANGLE_UNIT ( ) );
#175 =( NAMED_UNIT ( * ) PLANE_ANGLE_UNIT ( ) SI_UNIT ( $, .RADIAN. ) );
#176 = CARTESIAN_POINT ( 'NONE',  ( 25.39999999999999900, 0.0000000000000000000, -3.644999999999999100 ) ) ;
#177 = MECHANICAL_DESIGN_GEOMETRIC_PRESENTATION_REPRESENTATION (  '', ( #179 ), #168 ) ;
#178 = PRESENTATION_LAYER_ASSIGNMENT (  '', '', ( #179 ) ) ;
#179 = STYLED_ITEM ( 'NONE', ( #180 ), #42 ) ;
#180 = PRESENTATION_STYLE_ASSIGNMENT (( #162 ) ) ;
#181 = FILL_AREA_STYLE ('',( #161 ) ) ;
#182 =( LENGTH_UNIT ( ) NAMED_UNIT ( * ) SI_UNIT ( .MILLI., .METRE. ) );
#183 = DIRECTION ( 'NONE',  ( 1.000000000000000000, 0.0000000000000000000, 0.0000000000000000000 ) ) ;
#184 = STYLED_ITEM ( 'NONE', ( #185 ), #62 ) ;
#185 = PRESENTATION_STYLE_ASSIGNMENT (( #186 ) ) ;
#186 = SURFACE_STYLE_USAGE ( .BOTH. , #187 ) ;
#187 = SURFACE_SIDE_STYLE ('',( #218 ) ) ;
#188 = SURFACE_STYLE_USAGE ( .BOTH. , #191 ) ;
#189 =( LENGTH_UNIT ( ) NAMED_UNIT ( * ) SI_UNIT ( .MILLI., .METRE. ) );
#190 = STYLED_ITEM ( 'NONE', ( #222 ), #55 ) ;
#191 = SURFACE_SIDE_STYLE ('',( #236 ) ) ;
#192 = DIRECTION ( 'NONE',  ( -0.0000000000000000000, -0.0000000000000000000, 1.000000000000000000 ) ) ;
#193 = AXIS2_PLACEMENT_3D ( 'NONE', #223, #192, #213 ) ;
#194 = CIRCLE ( 'NONE', #193, 25.39999999999999900 ) ;
#195 = MECHANICAL_DESIGN_GEOMETRIC_PRESENTATION_REPRESENTATION (  '', ( #184 ), #214 ) ;
#196 = PRESENTATION_LAYER_ASSIGNMENT (  '', '', ( #184 ) ) ;
#197 = AXIS2_PLACEMENT_3D ( 'NONE', #226, #225, #224 ) ;
#198 = CYLINDRICAL_SURFACE ( 'NONE', #197, 25.39999999999999900 ) ;
#199 = PRESENTATION_LAYER_ASSIGNMENT (  '', '', ( #190 ) ) ;
#200 =( GEOMETRIC_REPRESENTATION_CONTEXT ( 3 ) GLOBAL_UNCERTAINTY_ASSIGNED_CONTEXT ( ( #215 ) ) GLOBAL_UNIT_ASSIGNED_CONTEXT ( ( #182, #210, #216 ) ) REPRESENTATION_CONTEXT ( 'NONE', 'WORKASPACE' ) );
#201 = UNCERTAINTY_MEASURE_WITH_UNIT (LENGTH_MEASURE( 1.000000000000000100E-005 ), #237, 'distance_accuracy_value', 'NONE');
#202 = DIRECTION ( 'NONE',  ( 0.0000000000000000000, -0.0000000000000000000, 1.000000000000000000 ) ) ;
#203 = CARTESIAN_POINT ( 'NONE',  ( 0.0000000000000000000, 1.339151274867630600E-015, -3.645000000000000000 ) ) ;
#204 = AXIS2_PLACEMENT_3D ( 'NONE', #203, #202, #183 ) ;
#205 = PLANE ( 'NONE',  #204 ) ;
#206 = UNCERTAINTY_MEASURE_WITH_UNIT (LENGTH_MEASURE( 1.000000000000000100E-005 ), #189, 'distance_accuracy_value', 'NONE');
#207 =( NAMED_UNIT ( * ) SI_UNIT ( $, .STERADIAN. ) SOLID_ANGLE_UNIT ( ) );
#208 =( GEOMETRIC_REPRESENTATION_CONTEXT ( 3 ) GLOBAL_UNCERTAINTY_ASSIGNED_CONTEXT ( ( #201 ) ) GLOBAL_UNIT_ASSIGNED_CONTEXT ( ( #237, #231, #235 ) ) REPRESENTATION_CONTEXT ( 'NONE', 'WORKASPACE' ) );
#209 =( NAMED_UNIT ( * ) PLANE_ANGLE_UNIT ( ) SI_UNIT ( $, .RADIAN. ) );
#210 =( NAMED_UNIT ( * ) PLANE_ANGLE_UNIT ( ) SI_UNIT ( $, .RADIAN. ) );
#211 = MECHANICAL_DESIGN_GEOMETRIC_PRESENTATION_REPRESENTATION (  '', ( #190 ), #208 ) ;
#212 = FACE_OUTER_BOUND ( 'NONE', #27, .T. ) ;
#213 = DIRECTION ( 'NONE',  ( 1.000000000000000000, 0.0000000000000000000, 0.0000000000000000000 ) ) ;
#214 =( GEOMETRIC_REPRESENTATION_CONTEXT ( 3 ) GLOBAL_UNCERTAINTY_ASSIGNED_CONTEXT ( ( #206 ) ) GLOBAL_UNIT_ASSIGNED_CONTEXT ( ( #189, #209, #207 ) ) REPRESENTATION_CONTEXT ( 'NONE', 'WORKASPACE' ) );
#215 = UNCERTAINTY_MEASURE_WITH_UNIT (LENGTH_MEASURE( 1.000000000000000100E-005 ), #182, 'distance_accuracy_value', 'NONE');
#216 =( NAMED_UNIT ( * ) SI_UNIT ( $, .STERADIAN. ) SOLID_ANGLE_UNIT ( ) );
#217 = FILL_AREA_STYLE ('',( #234 ) ) ;
#218 = SURFACE_STYLE_FILL_AREA ( #219 ) ;
#219 = FILL_AREA_STYLE ('',( #220 ) ) ;
#220 = FILL_AREA_STYLE_COLOUR ( '', #221 ) ;
#221 = COLOUR_RGB ( '',0.9568627450980391500, 0.9490196078431372100, 0.9607843137254902200 ) ;
#222 = PRESENTATION_STYLE_ASSIGNMENT (( #188 ) ) ;
#223 = CARTESIAN_POINT ( 'NONE',  ( 0.0000000000000000000, 0.0000000000000000000, -3.644999999999999100 ) ) ;
#224 = DIRECTION ( 'NONE',  ( 1.000000000000000000, 0.0000000000000000000, 0.0000000000000000000 ) ) ;
#225 = DIRECTION ( 'NONE',  ( -0.0000000000000000000, -0.0000000000000000000, 1.000000000000000000 ) ) ;
#226 = CARTESIAN_POINT ( 'NONE',  ( 0.0000000000000000000, 0.0000000000000000000, 4.308132045400366600 ) ) ;
#227 = FACE_OUTER_BOUND ( 'NONE', #60, .T. ) ;
#228 = FILL_AREA_STYLE_COLOUR ( '', #229 ) ;
#229 = COLOUR_RGB ( '',0.7960784313725489700, 0.8235294117647058400, 0.9372549019607843100 ) ;
#230 = ADVANCED_BREP_SHAPE_REPRESENTATION ( '4515-E0W', ( #39, #249 ), #200 ) ;
#231 =( NAMED_UNIT ( * ) PLANE_ANGLE_UNIT ( ) SI_UNIT ( $, .RADIAN. ) );
#232 = CARTESIAN_POINT ( 'NONE',  ( -25.39999999999999900, 3.110500138708838200E-015, -0.6496136856660008600 ) ) ;
#233 = COLOUR_RGB ( '',0.9568627450980391500, 0.9490196078431372100, 0.9607843137254902200 ) ;
#234 = FILL_AREA_STYLE_COLOUR ( '', #233 ) ;
#235 =( NAMED_UNIT ( * ) SI_UNIT ( $, .STERADIAN. ) SOLID_ANGLE_UNIT ( ) );
#236 = SURFACE_STYLE_FILL_AREA ( #217 ) ;
#237 =( LENGTH_UNIT ( ) NAMED_UNIT ( * ) SI_UNIT ( .MILLI., .METRE. ) );
#238 =( LENGTH_UNIT ( ) NAMED_UNIT ( * ) SI_UNIT ( .MILLI., .METRE. ) );
#239 = MECHANICAL_DESIGN_GEOMETRIC_PRESENTATION_REPRESENTATION (  '', ( #241 ), #248 ) ;
#240 = PRESENTATION_LAYER_ASSIGNMENT (  '', '', ( #241 ) ) ;
#241 = STYLED_ITEM ( 'NONE', ( #242 ), #230 ) ;
#242 = PRESENTATION_STYLE_ASSIGNMENT (( #243 ) ) ;
#243 = SURFACE_STYLE_USAGE ( .BOTH. , #244 ) ;
#244 = SURFACE_SIDE_STYLE ('',( #245 ) ) ;
#245 = SURFACE_STYLE_FILL_AREA ( #246 ) ;
#246 = FILL_AREA_STYLE ('',( #228 ) ) ;
#247 = DIRECTION ( 'NONE',  ( 1.000000000000000000, 0.0000000000000000000, 0.0000000000000000000 ) ) ;
#248 =( GEOMETRIC_REPRESENTATION_CONTEXT ( 3 ) GLOBAL_UNCERTAINTY_ASSIGNED_CONTEXT ( ( #72 ) ) GLOBAL_UNIT_ASSIGNED_CONTEXT ( ( #238, #47, #35 ) ) REPRESENTATION_CONTEXT ( 'NONE', 'WORKASPACE' ) );
#249 = AXIS2_PLACEMENT_3D ( 'NONE', #250, #251, #247 ) ;
#250 = CARTESIAN_POINT ( 'NONE',  ( 0.0000000000000000000, 0.0000000000000000000, 0.0000000000000000000 ) ) ;
#251 = DIRECTION ( 'NONE',  ( 0.0000000000000000000, 0.0000000000000000000, 1.000000000000000000 ) ) ;
#252 = PRODUCT_CONTEXT ( 'NONE', #254, 'mechanical' ) ;
#253 = APPLICATION_PROTOCOL_DEFINITION ( 'draft international standard', 'automotive_design', 1998, #254 ) ;
#254 = APPLICATION_CONTEXT ( 'automotive_design' ) ;
#255 = APPLICATION_CONTEXT ( 'automotive_design' ) ;
#256 = PRODUCT_DEFINITION_CONTEXT ( 'detailed design', #255, 'design' ) ;
#257 = PRODUCT ( '4515-E0W', '4515-E0W', '', ( #252 ) ) ;
#258 = PRODUCT_RELATED_PRODUCT_CATEGORY ( 'part', '', ( #257 ) ) ;
#259 = PRODUCT_DEFINITION_FORMATION_WITH_SPECIFIED_SOURCE ( 'ANY', '', #257, .NOT_KNOWN. ) ;
#260 = PRODUCT_DEFINITION ( 'UNKNOWN', '', #259, #256 ) ;
#261 = APPLICATION_PROTOCOL_DEFINITION ( 'draft international standard', 'automotive_design', 1998, #255 ) ;
ENDSEC;
END-ISO-10303-21;
