ISO-10303-21;
HEADER;
FILE_DESCRIPTION (( 'STEP AP203' ),
    '1' );
FILE_NAME ('4274-E0W.STEP',
    '2015-05-29T14:19:50',
    ( 'admin' ),
    ( '' ),
    'SwSTEP 2.0',
    'SolidWorks 2014',
    '' );
FILE_SCHEMA (( 'CONFIG_CONTROL_DESIGN' ));
ENDSEC;

DATA;
#1 = CARTESIAN_POINT ( 'NONE',  ( -1.450000000000000000, 0.0000000000000000000, 0.0000000000000000000 ) ) ;
#2 = DIRECTION ( 'NONE',  ( 0.0000000000000000000, 0.0000000000000000000, 1.000000000000000000 ) ) ;
#3 = LINE ( 'NONE', #52, #233 ) ;
#4 = CALENDAR_DATE ( 2015, 29, 5 ) ;
#5 = AXIS2_PLACEMENT_3D ( 'NONE', #232, #264, #261 ) ;
#6 = ORIENTED_EDGE ( 'NONE', *, *, #121, .T. ) ;
#7 = APPROVAL_PERSON_ORGANIZATION ( #30, #69, #283 ) ;
#8 = CARTESIAN_POINT ( 'NONE',  ( -16.94981322007354800, 0.0000000000000000000, 0.0000000000000000000 ) ) ;
#9 = ORIENTED_EDGE ( 'NONE', *, *, #290, .F. ) ;
#10 = ORIENTED_EDGE ( 'NONE', *, *, #191, .T. ) ;
#11 = AXIS2_PLACEMENT_3D ( 'NONE', #245, #236, #17 ) ;
#12 = AXIS2_PLACEMENT_3D ( 'NONE', #207, #99, #150 ) ;
#13 = ORGANIZATION ( 'UNSPECIFIED', 'UNSPECIFIED', '' ) ;
#14 = VECTOR ( 'NONE', #241, 999.9999999999998900 ) ;
#15 = VERTEX_POINT ( 'NONE', #216 ) ;
#16 = FACE_OUTER_BOUND ( 'NONE', #161, .T. ) ;
#17 = DIRECTION ( 'NONE',  ( 0.0000000000000000000, 0.0000000000000000000, -1.000000000000000000 ) ) ;
#18 = APPROVAL_ROLE ( '' ) ;
#19 = DIRECTION ( 'NONE',  ( 0.0000000000000000000, 0.0000000000000000000, 1.000000000000000000 ) ) ;
#20 = ADVANCED_BREP_SHAPE_REPRESENTATION ( '4274-E0W', ( #137, #182 ), #217 ) ;
#21 = DIRECTION ( 'NONE',  ( -1.000000000000000000, -0.0000000000000000000, -0.0000000000000000000 ) ) ;
#22 = DIRECTION ( 'NONE',  ( -1.000000000000000000, -0.0000000000000000000, -0.0000000000000000000 ) ) ;
#23 = CARTESIAN_POINT ( 'NONE',  ( -1.200000000000000600, 0.0000000000000000000, 0.0000000000000000000 ) ) ;
#24 = DIRECTION ( 'NONE',  ( 1.000000000000000000, 0.0000000000000000000, 0.0000000000000000000 ) ) ;
#25 = AXIS2_PLACEMENT_3D ( 'NONE', #110, #198, #159 ) ;
#26 = COORDINATED_UNIVERSAL_TIME_OFFSET ( 5, 0, .BEHIND. ) ;
#27 = ORIENTED_EDGE ( 'NONE', *, *, #296, .T. ) ;
#28 = AXIS2_PLACEMENT_3D ( 'NONE', #87, #22, #252 ) ;
#29 = DIRECTION ( 'NONE',  ( 0.0000000000000000000, 0.0000000000000000000, 1.000000000000000000 ) ) ;
#30 = PERSON_AND_ORGANIZATION ( #162, #13 ) ;
#31 = CC_DESIGN_PERSON_AND_ORGANIZATION_ASSIGNMENT ( #169, #114, ( #43 ) ) ;
#32 = CIRCLE ( 'NONE', #5, 6.350000000000000500 ) ;
#33 = EDGE_LOOP ( 'NONE', ( #220, #6, #151, #86 ) ) ;
#34 = CARTESIAN_POINT ( 'NONE',  ( -1.450000000000000000, 0.0000000000000000000, 0.0000000000000000000 ) ) ;
#35 = DATE_TIME_ROLE ( 'classification_date' ) ;
#36 = VECTOR ( 'NONE', #254, 1000.000000000000000 ) ;
#37 = PERSON_AND_ORGANIZATION ( #162, #13 ) ;
#38 = ORIENTED_EDGE ( 'NONE', *, *, #121, .F. ) ;
#39 = DIRECTION ( 'NONE',  ( 1.000000000000000000, 0.0000000000000000000, 0.0000000000000000000 ) ) ;
#40 = AXIS2_PLACEMENT_3D ( 'NONE', #180, #274, #19 ) ;
#41 = DIRECTION ( 'NONE',  ( 0.0000000000000000000, 0.0000000000000000000, -1.000000000000000000 ) ) ;
#42 = DIRECTION ( 'NONE',  ( -1.000000000000000000, -0.0000000000000000000, -0.0000000000000000000 ) ) ;
#43 = SECURITY_CLASSIFICATION ( '', '', #91 ) ;
#44 = DIRECTION ( 'NONE',  ( 1.000000000000000000, 0.0000000000000000000, 0.0000000000000000000 ) ) ;
#45 = PRODUCT_DEFINITION ( 'UNKNOWN', '', #234, #222 ) ;
#46 = LINE ( 'NONE', #128, #269 ) ;
#47 = EDGE_LOOP ( 'NONE', ( #132, #127, #257, #170 ) ) ;
#48 = VERTEX_POINT ( 'NONE', #115 ) ;
#49 = APPROVAL_PERSON_ORGANIZATION ( #149, #286, #203 ) ;
#50 = CARTESIAN_POINT ( 'NONE',  ( 0.09999999999999939500, 7.776507174585691200E-016, -6.350000000000000500 ) ) ;
#51 = LOCAL_TIME ( 10, 19, 50.00000000000000000, #255 ) ;
#52 = CARTESIAN_POINT ( 'NONE',  ( -1.450000000000000000, 7.776507174585693100E-016, -6.350000000000000500 ) ) ;
#53 = AXIS2_PLACEMENT_3D ( 'NONE', #23, #39, #74 ) ;
#54 = DIRECTION ( 'NONE',  ( 0.0000000000000000000, 0.0000000000000000000, 1.000000000000000000 ) ) ;
#55 = PLANE ( 'NONE',  #105 ) ;
#56 = LOCAL_TIME ( 10, 19, 50.00000000000000000, #139 ) ;
#57 = CIRCLE ( 'NONE', #135, 18.39999999999999100 ) ;
#58 = CIRCLE ( 'NONE', #181, 6.100000000000002300 ) ;
#59 = CARTESIAN_POINT ( 'NONE',  ( -1.450000000000000000, 7.623426324692276200E-016, 6.100000000000002300 ) ) ;
#60 = ADVANCED_FACE ( 'NONE', ( #109 ), #77, .T. ) ;
#61 = ORIENTED_EDGE ( 'NONE', *, *, #193, .T. ) ;
#62 = DIRECTION ( 'NONE',  ( 0.7071067811865489100, 8.659560562354918100E-017, 0.7071067811865462400 ) ) ;
#63 = SHAPE_DEFINITION_REPRESENTATION ( #143, #20 ) ;
#64 = PERSON_AND_ORGANIZATION ( #162, #13 ) ;
#65 = EDGE_LOOP ( 'NONE', ( #38, #142, #61, #95 ) ) ;
#66 = AXIS2_PLACEMENT_3D ( 'NONE', #206, #251, #138 ) ;
#67 = EDGE_CURVE ( 'NONE', #70, #213, #179, .T. ) ;
#68 = ORIENTED_EDGE ( 'NONE', *, *, #120, .F. ) ;
#69 = APPROVAL ( #212, 'UNSPECIFIED' ) ;
#70 = VERTEX_POINT ( 'NONE', #282 ) ;
#71 = CARTESIAN_POINT ( 'NONE',  ( 0.09999999999999939500, 0.0000000000000000000, 0.0000000000000000000 ) ) ;
#72 = DIRECTION ( 'NONE',  ( -1.000000000000000000, -0.0000000000000000000, -0.0000000000000000000 ) ) ;
#73 = DIRECTION ( 'NONE',  ( -1.000000000000000000, -0.0000000000000000000, -0.0000000000000000000 ) ) ;
#74 = DIRECTION ( 'NONE',  ( 0.0000000000000000000, 0.0000000000000000000, -1.000000000000000000 ) ) ;
#75 = CIRCLE ( 'NONE', #200, 6.116614506666293100 ) ;
#76 = LOCAL_TIME ( 10, 19, 50.00000000000000000, #178 ) ;
#77 = TOROIDAL_SURFACE ( 'NONE', #12, 0.08290637132584181800, 18.39999999999999100 ) ;
#78 = CARTESIAN_POINT ( 'NONE',  ( -16.94981322007354800, 0.0000000000000000000, 0.08290637132584181800 ) ) ;
#79 = VECTOR ( 'NONE', #62, 999.9999999999998900 ) ;
#80 = EDGE_LOOP ( 'NONE', ( #295, #239, #84, #210 ) ) ;
#81 = CC_DESIGN_PERSON_AND_ORGANIZATION_ASSIGNMENT ( #64, #113, ( #45 ) ) ;
#82 = CONICAL_SURFACE ( 'NONE', #147, 6.350000000000000500, 0.6116191232770543700 ) ;
#83 = EDGE_LOOP ( 'NONE', ( #288, #291, #247, #246 ) ) ;
#84 = ORIENTED_EDGE ( 'NONE', *, *, #290, .T. ) ;
#85 = CALENDAR_DATE ( 2015, 29, 5 ) ;
#86 = ORIENTED_EDGE ( 'NONE', *, *, #193, .F. ) ;
#87 = CARTESIAN_POINT ( 'NONE',  ( -1.450000000000000000, 0.0000000000000000000, 0.0000000000000000000 ) ) ;
#88 = CC_DESIGN_DATE_AND_TIME_ASSIGNMENT ( #101, #35, ( #43 ) ) ;
#89 = CARTESIAN_POINT ( 'NONE',  ( -1.200000000000000600, 0.0000000000000000000, 6.350000000000000500 ) ) ;
#90 = CALENDAR_DATE ( 2015, 29, 5 ) ;
#91 = SECURITY_CLASSIFICATION_LEVEL ( 'unclassified' ) ;
#92 = DIRECTION ( 'NONE',  ( -1.000000000000000000, -0.0000000000000000000, -0.0000000000000000000 ) ) ;
#93 = CC_DESIGN_APPROVAL ( #292, ( #234 ) ) ;
#94 = APPROVAL_PERSON_ORGANIZATION ( #125, #292, #18 ) ;
#95 = ORIENTED_EDGE ( 'NONE', *, *, #134, .T. ) ;
#96 = APPROVAL_DATE_TIME ( #218, #69 ) ;
#97 = APPROVAL_STATUS ( 'not_yet_approved' ) ;
#98 = AXIS2_PLACEMENT_3D ( 'NONE', #34, #92, #190 ) ;
#99 = DIRECTION ( 'NONE',  ( -1.000000000000000000, -0.0000000000000000000, -0.0000000000000000000 ) ) ;
#100 = CC_DESIGN_PERSON_AND_ORGANIZATION_ASSIGNMENT ( #188, #195, ( #234 ) ) ;
#101 = DATE_AND_TIME ( #4, #76 ) ;
#102 = FACE_OUTER_BOUND ( 'NONE', #80, .T. ) ;
#103 = EDGE_CURVE ( 'NONE', #48, #185, #267, .T. ) ;
#104 = CARTESIAN_POINT ( 'NONE',  ( 0.09999999999999939500, 0.0000000000000000000, 0.0000000000000000000 ) ) ;
#105 = AXIS2_PLACEMENT_3D ( 'NONE', #211, #152, #228 ) ;
#106 = CARTESIAN_POINT ( 'NONE',  ( 0.4327747960282575200, 0.0000000000000000000, 0.0000000000000000000 ) ) ;
#107 = CALENDAR_DATE ( 2015, 29, 5 ) ;
#108 = DIRECTION ( 'NONE',  ( -1.000000000000000000, -0.0000000000000000000, -0.0000000000000000000 ) ) ;
#109 = FACE_OUTER_BOUND ( 'NONE', #174, .T. ) ;
#110 = CARTESIAN_POINT ( 'NONE',  ( 0.09999999999999939500, 0.0000000000000000000, 0.0000000000000000000 ) ) ;
#111 = DIRECTION ( 'NONE',  ( 0.0000000000000000000, 0.0000000000000000000, 1.000000000000000000 ) ) ;
#112 = DIRECTION ( 'NONE',  ( 0.0000000000000000000, 0.0000000000000000000, 1.000000000000000000 ) ) ;
#113 = PERSON_AND_ORGANIZATION_ROLE ( 'creator' ) ;
#114 = PERSON_AND_ORGANIZATION_ROLE ( 'classification_officer' ) ;
#115 = CARTESIAN_POINT ( 'NONE',  ( -1.450000000000000000, 0.0000000000000000000, -6.100000000000002300 ) ) ;
#116 = DIRECTION ( 'NONE',  ( -1.000000000000000000, -0.0000000000000000000, -0.0000000000000000000 ) ) ;
#117 = CALENDAR_DATE ( 2015, 29, 5 ) ;
#118 = FACE_OUTER_BOUND ( 'NONE', #194, .T. ) ;
#119 = VERTEX_POINT ( 'NONE', #89 ) ;
#120 = EDGE_CURVE ( 'NONE', #298, #213, #227, .T. ) ;
#121 = EDGE_CURVE ( 'NONE', #213, #185, #3, .T. ) ;
#122 = EDGE_CURVE ( 'NONE', #185, #119, #32, .T. ) ;
#123 = DIRECTION ( 'NONE',  ( 0.0000000000000000000, 0.0000000000000000000, 1.000000000000000000 ) ) ;
#124 = EDGE_CURVE ( 'NONE', #204, #48, #129, .T. ) ;
#125 = PERSON_AND_ORGANIZATION ( #162, #13 ) ;
#126 = ORIENTED_EDGE ( 'NONE', *, *, #296, .F. ) ;
#127 = ORIENTED_EDGE ( 'NONE', *, *, #225, .T. ) ;
#128 = CARTESIAN_POINT ( 'NONE',  ( -1.450000000000000000, 0.0000000000000000000, 6.350000000000000500 ) ) ;
#129 = CIRCLE ( 'NONE', #98, 6.100000000000002300 ) ;
#130 = CC_DESIGN_SECURITY_CLASSIFICATION ( #43, ( #234 ) ) ;
#131 = CONICAL_SURFACE ( 'NONE', #40, 6.350000000000000500, 0.6116191232770543700 ) ;
#132 = ORIENTED_EDGE ( 'NONE', *, *, #124, .F. ) ;
#133 = CARTESIAN_POINT ( 'NONE',  ( 0.4327747960282558000, 0.0000000000000000000, 6.116614506666298500 ) ) ;
#134 = EDGE_CURVE ( 'NONE', #119, #185, #224, .T. ) ;
#135 = AXIS2_PLACEMENT_3D ( 'NONE', #278, #276, #272 ) ;
#136 = CIRCLE ( 'NONE', #258, 6.116614506666293100 ) ;
#137 = MANIFOLD_SOLID_BREP ( '4274-001-1-solid1', #221 ) ;
#138 = DIRECTION ( 'NONE',  ( 0.0000000000000000000, 0.0000000000000000000, -1.000000000000000000 ) ) ;
#139 = COORDINATED_UNIVERSAL_TIME_OFFSET ( 5, 0, .BEHIND. ) ;
#140 = CARTESIAN_POINT ( 'NONE',  ( -1.450000000000000000, 0.0000000000000000000, -6.100000000000002300 ) ) ;
#141 = LOCAL_TIME ( 10, 19, 50.00000000000000000, #259 ) ;
#142 = ORIENTED_EDGE ( 'NONE', *, *, #183, .T. ) ;
#143 = PRODUCT_DEFINITION_SHAPE ( 'NONE', 'NONE',  #45 ) ;
#144 = ADVANCED_FACE ( 'NONE', ( #281 ), #266, .T. ) ;
#145 = ORIENTED_EDGE ( 'NONE', *, *, #208, .F. ) ;
#146 = ADVANCED_FACE ( 'NONE', ( #244 ), #299, .T. ) ;
#147 = AXIS2_PLACEMENT_3D ( 'NONE', #104, #42, #123 ) ;
#148 = PERSON_AND_ORGANIZATION ( #162, #13 ) ;
#149 = PERSON_AND_ORGANIZATION ( #162, #13 ) ;
#150 = DIRECTION ( 'NONE',  ( 0.0000000000000000000, 0.0000000000000000000, 1.000000000000000000 ) ) ;
#151 = ORIENTED_EDGE ( 'NONE', *, *, #122, .T. ) ;
#152 = DIRECTION ( 'NONE',  ( 1.000000000000000000, 0.0000000000000000000, 0.0000000000000000000 ) ) ;
#153 = DIRECTION ( 'NONE',  ( -0.8187194008333617000, 7.031846235109776600E-017, -0.5741938198022175100 ) ) ;
#154 = ADVANCED_FACE ( 'NONE', ( #189 ), #294, .T. ) ;
#155 = CC_DESIGN_PERSON_AND_ORGANIZATION_ASSIGNMENT ( #37, #205, ( #268 ) ) ;
#156 = CARTESIAN_POINT ( 'NONE',  ( -1.200000000000000600, 7.776507174585693100E-016, -6.350000000000000500 ) ) ;
#157 = PERSON_AND_ORGANIZATION_ROLE ( 'creator' ) ;
#158 = EDGE_CURVE ( 'NONE', #199, #70, #136, .T. ) ;
#159 = DIRECTION ( 'NONE',  ( 0.0000000000000000000, 0.0000000000000000000, 1.000000000000000000 ) ) ;
#160 = ORIENTED_EDGE ( 'NONE', *, *, #208, .T. ) ;
#161 = EDGE_LOOP ( 'NONE', ( #10, #171 ) ) ;
#162 = PERSON ( 'UNSPECIFIED', 'UNSPECIFIED', 'UNSPECIFIED', ('UNSPECIFIED'), ('UNSPECIFIED'), ('UNSPECIFIED') ) ;
#163 = DIRECTION ( 'NONE',  ( 1.000000000000000000, 0.0000000000000000000, 0.0000000000000000000 ) ) ;
#164 = ORIENTED_EDGE ( 'NONE', *, *, #158, .T. ) ;
#165 = CARTESIAN_POINT ( 'NONE',  ( 0.09999999999999939500, 7.776507174585693100E-016, -6.350000000000000500 ) ) ;
#166 = APPROVAL_STATUS ( 'not_yet_approved' ) ;
#167 = CC_DESIGN_PERSON_AND_ORGANIZATION_ASSIGNMENT ( #148, #157, ( #234 ) ) ;
#168 = ORIENTED_EDGE ( 'NONE', *, *, #67, .T. ) ;
#169 = PERSON_AND_ORGANIZATION ( #162, #13 ) ;
#170 = ORIENTED_EDGE ( 'NONE', *, *, #103, .F. ) ;
#171 = ORIENTED_EDGE ( 'NONE', *, *, #124, .T. ) ;
#172 = CIRCLE ( 'NONE', #196, 18.39999999999999100 ) ;
#173 = CC_DESIGN_APPROVAL ( #69, ( #43 ) ) ;
#174 = EDGE_LOOP ( 'NONE', ( #145, #27, #226 ) ) ;
#175 = DATE_TIME_ROLE ( 'creation_date' ) ;
#176 = ADVANCED_FACE ( 'NONE', ( #256 ), #131, .T. ) ;
#177 = ADVANCED_FACE ( 'NONE', ( #118 ), #187, .T. ) ;
#178 = COORDINATED_UNIVERSAL_TIME_OFFSET ( 5, 0, .BEHIND. ) ;
#179 = LINE ( 'NONE', #50, #240 ) ;
#180 = CARTESIAN_POINT ( 'NONE',  ( 0.09999999999999939500, 0.0000000000000000000, 0.0000000000000000000 ) ) ;
#181 = AXIS2_PLACEMENT_3D ( 'NONE', #1, #108, #41 ) ;
#182 = AXIS2_PLACEMENT_3D ( 'NONE', #186, #2, #24 ) ;
#183 = EDGE_CURVE ( 'NONE', #213, #298, #192, .T. ) ;
#184 = EDGE_LOOP ( 'NONE', ( #243, #168, #68, #9 ) ) ;
#185 = VERTEX_POINT ( 'NONE', #156 ) ;
#186 = CARTESIAN_POINT ( 'NONE',  ( 0.0000000000000000000, 0.0000000000000000000, 0.0000000000000000000 ) ) ;
#187 = TOROIDAL_SURFACE ( 'NONE', #214, 0.08290637132584181800, 18.39999999999999100 ) ;
#188 = PERSON_AND_ORGANIZATION ( #162, #13 ) ;
#189 = FACE_OUTER_BOUND ( 'NONE', #65, .T. ) ;
#190 = DIRECTION ( 'NONE',  ( 0.0000000000000000000, 0.0000000000000000000, -1.000000000000000000 ) ) ;
#191 = EDGE_CURVE ( 'NONE', #48, #204, #58, .T. ) ;
#192 = CIRCLE ( 'NONE', #300, 6.350000000000000500 ) ;
#193 = EDGE_CURVE ( 'NONE', #298, #119, #46, .T. ) ;
#194 = EDGE_LOOP ( 'NONE', ( #126, #160, #164 ) ) ;
#195 = PERSON_AND_ORGANIZATION_ROLE ( 'design_supplier' ) ;
#196 = AXIS2_PLACEMENT_3D ( 'NONE', #78, #293, #237 ) ;
#197 = APPROVAL_DATE_TIME ( #215, #292 ) ;
#198 = DIRECTION ( 'NONE',  ( -1.000000000000000000, -0.0000000000000000000, -0.0000000000000000000 ) ) ;
#199 = VERTEX_POINT ( 'NONE', #133 ) ;
#200 = AXIS2_PLACEMENT_3D ( 'NONE', #301, #163, #29 ) ;
#201 = CARTESIAN_POINT ( 'NONE',  ( -1.450000000000000000, 7.470345474798857300E-016, 6.100000000000002300 ) ) ;
#202 = DIRECTION ( 'NONE',  ( -1.000000000000000000, -0.0000000000000000000, -0.0000000000000000000 ) ) ;
#203 = APPROVAL_ROLE ( '' ) ;
#204 = VERTEX_POINT ( 'NONE', #59 ) ;
#205 = PERSON_AND_ORGANIZATION_ROLE ( 'design_owner' ) ;
#206 = CARTESIAN_POINT ( 'NONE',  ( -1.450000000000000000, 0.0000000000000000000, 0.0000000000000000000 ) ) ;
#207 = CARTESIAN_POINT ( 'NONE',  ( -16.94981322007354800, 0.0000000000000000000, 0.0000000000000000000 ) ) ;
#208 = EDGE_CURVE ( 'NONE', #15, #199, #172, .T. ) ;
#209 = FACE_OUTER_BOUND ( 'NONE', #83, .T. ) ;
#210 = ORIENTED_EDGE ( 'NONE', *, *, #183, .F. ) ;
#211 = CARTESIAN_POINT ( 'NONE',  ( -1.450000000000000000, 0.0000000000000000000, 0.0000000000000000000 ) ) ;
#212 = APPROVAL_STATUS ( 'not_yet_approved' ) ;
#213 = VERTEX_POINT ( 'NONE', #165 ) ;
#214 = AXIS2_PLACEMENT_3D ( 'NONE', #8, #202, #54 ) ;
#215 = DATE_AND_TIME ( #107, #51 ) ;
#216 = CARTESIAN_POINT ( 'NONE',  ( 1.450000000000000000, 0.0000000000000000000, 0.0000000000000000000 ) ) ;
#217 =( GEOMETRIC_REPRESENTATION_CONTEXT ( 3 ) GLOBAL_UNCERTAINTY_ASSIGNED_CONTEXT ( ( #248 ) ) GLOBAL_UNIT_ASSIGNED_CONTEXT ( ( #219, #270, #287 ) ) REPRESENTATION_CONTEXT ( 'NONE', 'WORKASPACE' ) );
#218 = DATE_AND_TIME ( #117, #238 ) ;
#219 =( LENGTH_UNIT ( ) NAMED_UNIT ( * ) SI_UNIT ( .MILLI., .METRE. ) );
#220 = ORIENTED_EDGE ( 'NONE', *, *, #120, .T. ) ;
#221 = CLOSED_SHELL ( 'NONE', ( #144, #176, #60, #146, #249, #154, #177, #277, #242 ) ) ;
#222 = DESIGN_CONTEXT ( 'detailed design', #263, 'design' ) ;
#223 = MECHANICAL_CONTEXT ( 'NONE', #260, 'mechanical' ) ;
#224 = CIRCLE ( 'NONE', #53, 6.350000000000000500 ) ;
#225 = EDGE_CURVE ( 'NONE', #204, #119, #297, .T. ) ;
#226 = ORIENTED_EDGE ( 'NONE', *, *, #253, .T. ) ;
#227 = CIRCLE ( 'NONE', #25, 6.350000000000000500 ) ;
#228 = DIRECTION ( 'NONE',  ( 0.0000000000000000000, 0.0000000000000000000, -1.000000000000000000 ) ) ;
#229 = DATE_AND_TIME ( #85, #56 ) ;
#230 = CC_DESIGN_APPROVAL ( #286, ( #45 ) ) ;
#231 = CARTESIAN_POINT ( 'NONE',  ( 0.09999999999999939500, 0.0000000000000000000, 6.350000000000000500 ) ) ;
#232 = CARTESIAN_POINT ( 'NONE',  ( -1.200000000000000600, 0.0000000000000000000, 0.0000000000000000000 ) ) ;
#233 = VECTOR ( 'NONE', #73, 1000.000000000000000 ) ;
#234 = PRODUCT_DEFINITION_FORMATION_WITH_SPECIFIED_SOURCE ( 'ANY', '', #268, .NOT_KNOWN. ) ;
#235 = LINE ( 'NONE', #271, #36 ) ;
#236 = DIRECTION ( 'NONE',  ( 1.000000000000000000, 0.0000000000000000000, 0.0000000000000000000 ) ) ;
#237 = DIRECTION ( 'NONE',  ( 0.0000000000000000000, 0.0000000000000000000, -1.000000000000000000 ) ) ;
#238 = LOCAL_TIME ( 10, 19, 50.00000000000000000, #26 ) ;
#239 = ORIENTED_EDGE ( 'NONE', *, *, #158, .F. ) ;
#240 = VECTOR ( 'NONE', #153, 1000.000000000000000 ) ;
#241 = DIRECTION ( 'NONE',  ( 0.7071067811865489100, 0.0000000000000000000, -0.7071067811865462400 ) ) ;
#242 = ADVANCED_FACE ( 'NONE', ( #209 ), #280, .T. ) ;
#243 = ORIENTED_EDGE ( 'NONE', *, *, #253, .F. ) ;
#244 = FACE_OUTER_BOUND ( 'NONE', #33, .T. ) ;
#245 = CARTESIAN_POINT ( 'NONE',  ( -1.450000000000000000, 0.0000000000000000000, 0.0000000000000000000 ) ) ;
#246 = ORIENTED_EDGE ( 'NONE', *, *, #134, .F. ) ;
#247 = ORIENTED_EDGE ( 'NONE', *, *, #103, .T. ) ;
#248 = UNCERTAINTY_MEASURE_WITH_UNIT (LENGTH_MEASURE( 1.000000000000000100E-005 ), #219, 'distance_accuracy_value', 'NONE');
#249 = ADVANCED_FACE ( 'NONE', ( #16 ), #55, .F. ) ;
#250 = APPROVAL_DATE_TIME ( #229, #286 ) ;
#251 = DIRECTION ( 'NONE',  ( 1.000000000000000000, 0.0000000000000000000, 0.0000000000000000000 ) ) ;
#252 = DIRECTION ( 'NONE',  ( 0.0000000000000000000, 0.0000000000000000000, 1.000000000000000000 ) ) ;
#253 = EDGE_CURVE ( 'NONE', #70, #199, #75, .T. ) ;
#254 = DIRECTION ( 'NONE',  ( -0.8187194008333617000, 0.0000000000000000000, 0.5741938198022175100 ) ) ;
#255 = COORDINATED_UNIVERSAL_TIME_OFFSET ( 5, 0, .BEHIND. ) ;
#256 = FACE_OUTER_BOUND ( 'NONE', #184, .T. ) ;
#257 = ORIENTED_EDGE ( 'NONE', *, *, #122, .F. ) ;
#258 = AXIS2_PLACEMENT_3D ( 'NONE', #106, #44, #275 ) ;
#259 = COORDINATED_UNIVERSAL_TIME_OFFSET ( 5, 0, .BEHIND. ) ;
#260 = APPLICATION_CONTEXT ( 'configuration controlled 3d designs of mechanical parts and assemblies' ) ;
#261 = DIRECTION ( 'NONE',  ( 0.0000000000000000000, 0.0000000000000000000, -1.000000000000000000 ) ) ;
#262 = CC_DESIGN_DATE_AND_TIME_ASSIGNMENT ( #265, #175, ( #45 ) ) ;
#263 = APPLICATION_CONTEXT ( 'configuration controlled 3d designs of mechanical parts and assemblies' ) ;
#264 = DIRECTION ( 'NONE',  ( 1.000000000000000000, 0.0000000000000000000, 0.0000000000000000000 ) ) ;
#265 = DATE_AND_TIME ( #90, #141 ) ;
#266 = CONICAL_SURFACE ( 'NONE', #66, 6.100000000000002300, 0.7853981633974465000 ) ;
#267 = LINE ( 'NONE', #140, #14 ) ;
#268 = PRODUCT ( '4274-E0W', '4274-E0W', '', ( #223 ) ) ;
#269 = VECTOR ( 'NONE', #116, 1000.000000000000000 ) ;
#270 =( NAMED_UNIT ( * ) PLANE_ANGLE_UNIT ( ) SI_UNIT ( $, .RADIAN. ) );
#271 = CARTESIAN_POINT ( 'NONE',  ( 0.09999999999999939500, 0.0000000000000000000, 6.350000000000000500 ) ) ;
#272 = DIRECTION ( 'NONE',  ( 0.0000000000000000000, -1.224646799147353200E-016, 1.000000000000000000 ) ) ;
#273 = APPLICATION_PROTOCOL_DEFINITION ( 'international standard', 'config_control_design', 1994, #263 ) ;
#274 = DIRECTION ( 'NONE',  ( -1.000000000000000000, -0.0000000000000000000, -0.0000000000000000000 ) ) ;
#275 = DIRECTION ( 'NONE',  ( 0.0000000000000000000, 0.0000000000000000000, 1.000000000000000000 ) ) ;
#276 = DIRECTION ( 'NONE',  ( -0.0000000000000000000, 1.000000000000000000, 1.224646799147353200E-016 ) ) ;
#277 = ADVANCED_FACE ( 'NONE', ( #102 ), #82, .T. ) ;
#278 = CARTESIAN_POINT ( 'NONE',  ( -16.94981322007354800, 1.015310222731140800E-017, -0.08290637132584181800 ) ) ;
#279 = AXIS2_PLACEMENT_3D ( 'NONE', #285, #72, #111 ) ;
#280 = CONICAL_SURFACE ( 'NONE', #11, 6.100000000000002300, 0.7853981633974465000 ) ;
#281 = FACE_OUTER_BOUND ( 'NONE', #47, .T. ) ;
#282 = CARTESIAN_POINT ( 'NONE',  ( 0.4327747960282558000, 7.490692377207149000E-016, -6.116614506666298500 ) ) ;
#283 = APPROVAL_ROLE ( '' ) ;
#284 = PRODUCT_RELATED_PRODUCT_CATEGORY ( 'detail', '', ( #268 ) ) ;
#285 = CARTESIAN_POINT ( 'NONE',  ( -1.450000000000000000, 0.0000000000000000000, 0.0000000000000000000 ) ) ;
#286 = APPROVAL ( #166, 'UNSPECIFIED' ) ;
#287 =( NAMED_UNIT ( * ) SI_UNIT ( $, .STERADIAN. ) SOLID_ANGLE_UNIT ( ) );
#288 = ORIENTED_EDGE ( 'NONE', *, *, #225, .F. ) ;
#289 = APPLICATION_PROTOCOL_DEFINITION ( 'international standard', 'config_control_design', 1994, #260 ) ;
#290 = EDGE_CURVE ( 'NONE', #199, #298, #235, .T. ) ;
#291 = ORIENTED_EDGE ( 'NONE', *, *, #191, .F. ) ;
#292 = APPROVAL ( #97, 'UNSPECIFIED' ) ;
#293 = DIRECTION ( 'NONE',  ( 0.0000000000000000000, -1.000000000000000000, 0.0000000000000000000 ) ) ;
#294 = CYLINDRICAL_SURFACE ( 'NONE', #279, 6.350000000000000500 ) ;
#295 = ORIENTED_EDGE ( 'NONE', *, *, #67, .F. ) ;
#296 = EDGE_CURVE ( 'NONE', #15, #70, #57, .T. ) ;
#297 = LINE ( 'NONE', #201, #79 ) ;
#298 = VERTEX_POINT ( 'NONE', #231 ) ;
#299 = CYLINDRICAL_SURFACE ( 'NONE', #28, 6.350000000000000500 ) ;
#300 = AXIS2_PLACEMENT_3D ( 'NONE', #71, #21, #112 ) ;
#301 = CARTESIAN_POINT ( 'NONE',  ( 0.4327747960282575200, 0.0000000000000000000, 0.0000000000000000000 ) ) ;
ENDSEC;
END-ISO-10303-21;
