ISO-10303-21;
HEADER;
FILE_DESCRIPTION (( 'STEP AP203' ),
    '1' );
FILE_NAME ('Web Model 43216_43216.step',
    '2018-03-12T19:17:59',
    ( '' ),
    ( '' ),
    'SwSTEP 2.0',
    'SolidWorks 2016',
    '' );
FILE_SCHEMA (( 'CONFIG_CONTROL_DESIGN' ));
ENDSEC;

DATA;
#1 = LINE ( 'NONE', #66, #179 ) ;
#2 = APPROVAL ( #153, 'UNSPECIFIED' ) ;
#3 = EDGE_CURVE ( 'NONE', #223, #176, #127, .T. ) ;
#4 = COORDINATED_UNIVERSAL_TIME_OFFSET ( 5, 0, .BEHIND. ) ;
#5 = VERTEX_POINT ( 'NONE', #84 ) ;
#6 = DESIGN_CONTEXT ( 'detailed design', #106, 'design' ) ;
#7 = ADVANCED_FACE ( 'NONE', ( #109 ), #99, .F. ) ;
#8 = APPROVAL_PERSON_ORGANIZATION ( #45, #219, #87 ) ;
#9 = FACE_OUTER_BOUND ( 'NONE', #75, .T. ) ;
#10 = ORIENTED_EDGE ( 'NONE', *, *, #39, .F. ) ;
#11 = DIRECTION ( 'NONE',  ( -1.000000000000000000, -0.0000000000000000000, -0.0000000000000000000 ) ) ;
#12 = CARTESIAN_POINT ( 'NONE',  ( -4.750000000000000000, 12.50000000000000000, 12.49999999999999600 ) ) ;
#13 = ORGANIZATION ( 'UNSPECIFIED', 'UNSPECIFIED', '' ) ;
#14 = CARTESIAN_POINT ( 'NONE',  ( 4.750000000000000000, -12.50000000000000000, 12.50000000000000200 ) ) ;
#15 = ORIENTED_EDGE ( 'NONE', *, *, #34, .F. ) ;
#16 = DIRECTION ( 'NONE',  ( 0.0000000000000000000, 0.0000000000000000000, -1.000000000000000000 ) ) ;
#17 = FACE_OUTER_BOUND ( 'NONE', #216, .T. ) ;
#18 = ORIENTED_EDGE ( 'NONE', *, *, #41, .T. ) ;
#19 = PERSON_AND_ORGANIZATION_ROLE ( 'creator' ) ;
#20 = DIRECTION ( 'NONE',  ( 0.0000000000000000000, 0.0000000000000000000, -1.000000000000000000 ) ) ;
#21 = EDGE_CURVE ( 'NONE', #135, #129, #142, .T. ) ;
#22 = LINE ( 'NONE', #67, #201 ) ;
#23 = VECTOR ( 'NONE', #33, 1000.000000000000000 ) ;
#24 = EDGE_CURVE ( 'NONE', #176, #158, #215, .T. ) ;
#25 = ORIENTED_EDGE ( 'NONE', *, *, #92, .T. ) ;
#26 = VERTEX_POINT ( 'NONE', #183 ) ;
#27 = ADVANCED_FACE ( 'NONE', ( #9 ), #144, .F. ) ;
#28 = VERTEX_POINT ( 'NONE', #116 ) ;
#29 = CC_DESIGN_APPROVAL ( #219, ( #157 ) ) ;
#30 = PERSON ( 'UNSPECIFIED', 'UNSPECIFIED', 'UNSPECIFIED', ('UNSPECIFIED'), ('UNSPECIFIED'), ('UNSPECIFIED') ) ;
#31 = CARTESIAN_POINT ( 'NONE',  ( 4.750000000000000000, 12.50000000000000000, -12.50000000000000000 ) ) ;
#32 = CC_DESIGN_PERSON_AND_ORGANIZATION_ASSIGNMENT ( #214, #210, ( #151 ) ) ;
#33 = DIRECTION ( 'NONE',  ( 0.0000000000000000000, 0.0000000000000000000, -1.000000000000000000 ) ) ;
#34 = EDGE_CURVE ( 'NONE', #26, #223, #69, .T. ) ;
#35 = CC_DESIGN_PERSON_AND_ORGANIZATION_ASSIGNMENT ( #128, #172, ( #159 ) ) ;
#36 = SHAPE_DEFINITION_REPRESENTATION ( #82, #161 ) ;
#37 =( LENGTH_UNIT ( ) NAMED_UNIT ( * ) SI_UNIT ( .MILLI., .METRE. ) );
#38 =( NAMED_UNIT ( * ) SI_UNIT ( $, .STERADIAN. ) SOLID_ANGLE_UNIT ( ) );
#39 = EDGE_CURVE ( 'NONE', #28, #158, #195, .T. ) ;
#40 = DIRECTION ( 'NONE',  ( 1.000000000000000000, 0.0000000000000000000, 0.0000000000000000000 ) ) ;
#41 = EDGE_CURVE ( 'NONE', #129, #5, #189, .T. ) ;
#42 = EDGE_LOOP ( 'NONE', ( #114, #80, #208, #202 ) ) ;
#43 = CARTESIAN_POINT ( 'NONE',  ( 4.750000000000000000, 12.50000000000000000, 12.49999999999999600 ) ) ;
#44 = LINE ( 'NONE', #85, #143 ) ;
#45 = PERSON_AND_ORGANIZATION ( #30, #13 ) ;
#46 = CALENDAR_DATE ( 2018, 12, 3 ) ;
#47 = CC_DESIGN_PERSON_AND_ORGANIZATION_ASSIGNMENT ( #74, #19, ( #171 ) ) ;
#48 = COORDINATED_UNIVERSAL_TIME_OFFSET ( 5, 0, .BEHIND. ) ;
#49 = ORIENTED_EDGE ( 'NONE', *, *, #3, .F. ) ;
#50 = ORIENTED_EDGE ( 'NONE', *, *, #21, .T. ) ;
#51 = DIRECTION ( 'NONE',  ( 0.0000000000000000000, -0.0000000000000000000, -1.000000000000000000 ) ) ;
#52 = DATE_AND_TIME ( #133, #174 ) ;
#53 = APPROVAL_ROLE ( '' ) ;
#54 =( NAMED_UNIT ( * ) PLANE_ANGLE_UNIT ( ) SI_UNIT ( $, .RADIAN. ) );
#55 = PERSON_AND_ORGANIZATION_ROLE ( 'design_supplier' ) ;
#56 = CARTESIAN_POINT ( 'NONE',  ( -4.750000000000000000, 12.50000000000000000, 12.49999999999999600 ) ) ;
#57 = AXIS2_PLACEMENT_3D ( 'NONE', #43, #187, #155 ) ;
#58 = EDGE_CURVE ( 'NONE', #158, #129, #199, .T. ) ;
#59 = ORIENTED_EDGE ( 'NONE', *, *, #89, .T. ) ;
#60 = FACE_OUTER_BOUND ( 'NONE', #83, .T. ) ;
#61 = ORIENTED_EDGE ( 'NONE', *, *, #24, .T. ) ;
#62 = DIRECTION ( 'NONE',  ( -1.000000000000000000, -0.0000000000000000000, -0.0000000000000000000 ) ) ;
#63 = MANIFOLD_SOLID_BREP ( 'Boss-Extrude1', #230 ) ;
#64 = CARTESIAN_POINT ( 'NONE',  ( -4.750000000000000000, 12.50000000000000000, 12.49999999999999600 ) ) ;
#65 = LOCAL_TIME ( 15, 17, 59.00000000000000000, #48 ) ;
#66 = CARTESIAN_POINT ( 'NONE',  ( 4.750000000000000000, -12.50000000000000000, 12.50000000000000200 ) ) ;
#67 = CARTESIAN_POINT ( 'NONE',  ( -4.750000000000000000, 12.50000000000000000, -12.50000000000000000 ) ) ;
#68 = DIRECTION ( 'NONE',  ( 0.0000000000000000000, -1.000000000000000000, 2.081668171172168500E-016 ) ) ;
#69 = LINE ( 'NONE', #132, #98 ) ;
#70 = CARTESIAN_POINT ( 'NONE',  ( 0.0000000000000000000, 0.0000000000000000000, 0.0000000000000000000 ) ) ;
#71 = MECHANICAL_CONTEXT ( 'NONE', #186, 'mechanical' ) ;
#72 = ORIENTED_EDGE ( 'NONE', *, *, #213, .T. ) ;
#73 = AXIS2_PLACEMENT_3D ( 'NONE', #14, #95, #228 ) ;
#74 = PERSON_AND_ORGANIZATION ( #30, #13 ) ;
#75 = EDGE_LOOP ( 'NONE', ( #61, #10, #152, #182 ) ) ;
#76 = EDGE_LOOP ( 'NONE', ( #18, #218, #212, #50 ) ) ;
#77 = EDGE_CURVE ( 'NONE', #5, #176, #22, .T. ) ;
#78 = UNCERTAINTY_MEASURE_WITH_UNIT (LENGTH_MEASURE( 1.000000000000000100E-005 ), #37, 'distance_accuracy_value', 'NONE');
#79 = CALENDAR_DATE ( 2018, 12, 3 ) ;
#80 = ORIENTED_EDGE ( 'NONE', *, *, #24, .F. ) ;
#81 = DIRECTION ( 'NONE',  ( 0.0000000000000000000, -1.000000000000000000, 0.0000000000000000000 ) ) ;
#82 = PRODUCT_DEFINITION_SHAPE ( 'NONE', 'NONE',  #159 ) ;
#83 = EDGE_LOOP ( 'NONE', ( #175, #49, #15, #72 ) ) ;
#84 = CARTESIAN_POINT ( 'NONE',  ( -4.750000000000000000, -12.50000000000000000, -12.50000000000000500 ) ) ;
#85 = CARTESIAN_POINT ( 'NONE',  ( 4.750000000000000000, 12.50000000000000000, 12.49999999999999600 ) ) ;
#86 = DIRECTION ( 'NONE',  ( 0.0000000000000000000, -1.000000000000000000, -2.081668171172168500E-016 ) ) ;
#87 = APPROVAL_ROLE ( '' ) ;
#88 = DATE_AND_TIME ( #198, #236 ) ;
#89 = EDGE_CURVE ( 'NONE', #135, #26, #1, .T. ) ;
#90 = APPROVAL_DATE_TIME ( #52, #173 ) ;
#91 = FACE_OUTER_BOUND ( 'NONE', #190, .T. ) ;
#92 = EDGE_CURVE ( 'NONE', #223, #28, #44, .T. ) ;
#93 = PERSON_AND_ORGANIZATION ( #30, #13 ) ;
#94 = VECTOR ( 'NONE', #11, 1000.000000000000000 ) ;
#95 = DIRECTION ( 'NONE',  ( -0.0000000000000000000, 1.000000000000000000, 0.0000000000000000000 ) ) ;
#96 = CC_DESIGN_PERSON_AND_ORGANIZATION_ASSIGNMENT ( #194, #55, ( #171 ) ) ;
#97 = CARTESIAN_POINT ( 'NONE',  ( -4.750000000000000000, -12.50000000000000000, 12.50000000000000200 ) ) ;
#98 = VECTOR ( 'NONE', #162, 1000.000000000000000 ) ;
#99 = PLANE ( 'NONE',  #73 ) ;
#100 = CARTESIAN_POINT ( 'NONE',  ( 4.750000000000000000, -12.50000000000000000, 12.50000000000000200 ) ) ;
#101 = AXIS2_PLACEMENT_3D ( 'NONE', #150, #231, #86 ) ;
#102 = DIRECTION ( 'NONE',  ( -1.000000000000000000, -0.0000000000000000000, -0.0000000000000000000 ) ) ;
#103 = DATE_TIME_ROLE ( 'creation_date' ) ;
#104 = ORIENTED_EDGE ( 'NONE', *, *, #226, .T. ) ;
#105 = CARTESIAN_POINT ( 'NONE',  ( 4.750000000000000000, 0.0000000000000000000, 0.0000000000000000000 ) ) ;
#106 = APPLICATION_CONTEXT ( 'configuration controlled 3d designs of mechanical parts and assemblies' ) ;
#107 = AXIS2_PLACEMENT_3D ( 'NONE', #148, #81, #51 ) ;
#108 = VECTOR ( 'NONE', #102, 1000.000000000000000 ) ;
#109 = FACE_OUTER_BOUND ( 'NONE', #76, .T. ) ;
#110 = ADVANCED_FACE ( 'NONE', ( #168 ), #166, .F. ) ;
#111 = VECTOR ( 'NONE', #224, 1000.000000000000000 ) ;
#112 = CC_DESIGN_DATE_AND_TIME_ASSIGNMENT ( #88, #103, ( #159 ) ) ;
#113 = VECTOR ( 'NONE', #68, 1000.000000000000000 ) ;
#114 = ORIENTED_EDGE ( 'NONE', *, *, #58, .F. ) ;
#115 =( GEOMETRIC_REPRESENTATION_CONTEXT ( 3 ) GLOBAL_UNCERTAINTY_ASSIGNED_CONTEXT ( ( #78 ) ) GLOBAL_UNIT_ASSIGNED_CONTEXT ( ( #37, #54, #38 ) ) REPRESENTATION_CONTEXT ( 'NONE', 'WORKASPACE' ) );
#116 = CARTESIAN_POINT ( 'NONE',  ( 4.750000000000000000, 12.50000000000000000, 12.49999999999999600 ) ) ;
#117 = DIRECTION ( 'NONE',  ( -0.0000000000000000000, -0.0000000000000000000, 1.000000000000000000 ) ) ;
#118 = APPROVAL_DATE_TIME ( #160, #2 ) ;
#119 = PLANE ( 'NONE',  #101 ) ;
#120 = APPROVAL_ROLE ( '' ) ;
#121 = CARTESIAN_POINT ( 'NONE',  ( 4.750000000000000000, 12.50000000000000000, 12.49999999999999600 ) ) ;
#122 = DATE_AND_TIME ( #46, #163 ) ;
#123 = AXIS2_PLACEMENT_3D ( 'NONE', #140, #136, #20 ) ;
#124 = LINE ( 'NONE', #209, #108 ) ;
#125 = PERSON_AND_ORGANIZATION ( #30, #13 ) ;
#126 = AXIS2_PLACEMENT_3D ( 'NONE', #70, #205, #154 ) ;
#127 = LINE ( 'NONE', #31, #221 ) ;
#128 = PERSON_AND_ORGANIZATION ( #30, #13 ) ;
#129 = VERTEX_POINT ( 'NONE', #97 ) ;
#130 = CARTESIAN_POINT ( 'NONE',  ( -4.750000000000000000, -12.50000000000000000, 12.50000000000000200 ) ) ;
#131 = CC_DESIGN_APPROVAL ( #2, ( #171 ) ) ;
#132 = CARTESIAN_POINT ( 'NONE',  ( 4.750000000000000000, 12.50000000000000000, -12.50000000000000000 ) ) ;
#133 = CALENDAR_DATE ( 2018, 12, 3 ) ;
#134 = DIRECTION ( 'NONE',  ( -1.000000000000000000, -0.0000000000000000000, -0.0000000000000000000 ) ) ;
#135 = VERTEX_POINT ( 'NONE', #100 ) ;
#136 = DIRECTION ( 'NONE',  ( 1.000000000000000000, 0.0000000000000000000, 0.0000000000000000000 ) ) ;
#137 = PLANE ( 'NONE',  #200 ) ;
#138 = VECTOR ( 'NONE', #62, 1000.000000000000000 ) ;
#139 = ORIENTED_EDGE ( 'NONE', *, *, #34, .T. ) ;
#140 = CARTESIAN_POINT ( 'NONE',  ( -4.750000000000000000, 0.0000000000000000000, 0.0000000000000000000 ) ) ;
#141 = COORDINATED_UNIVERSAL_TIME_OFFSET ( 5, 0, .BEHIND. ) ;
#142 = LINE ( 'NONE', #181, #94 ) ;
#143 = VECTOR ( 'NONE', #117, 1000.000000000000000 ) ;
#144 = PLANE ( 'NONE',  #107 ) ;
#145 = DIRECTION ( 'NONE',  ( 0.0000000000000000000, -1.000000000000000000, 2.081668171172168500E-016 ) ) ;
#146 = PERSON_AND_ORGANIZATION ( #30, #13 ) ;
#147 = ADVANCED_FACE ( 'NONE', ( #60 ), #119, .F. ) ;
#148 = CARTESIAN_POINT ( 'NONE',  ( 4.750000000000000000, 12.50000000000000000, 12.49999999999999600 ) ) ;
#149 = APPROVAL_STATUS ( 'not_yet_approved' ) ;
#150 = CARTESIAN_POINT ( 'NONE',  ( 4.750000000000000000, 12.50000000000000000, -12.50000000000000000 ) ) ;
#151 = PRODUCT ( 'Web Model 43216_43216', 'Web Model 43216_43216', '', ( #71 ) ) ;
#152 = ORIENTED_EDGE ( 'NONE', *, *, #92, .F. ) ;
#153 = APPROVAL_STATUS ( 'not_yet_approved' ) ;
#154 = DIRECTION ( 'NONE',  ( 1.000000000000000000, 0.0000000000000000000, 0.0000000000000000000 ) ) ;
#155 = DIRECTION ( 'NONE',  ( 0.0000000000000000000, 1.000000000000000000, -2.081668171172168500E-016 ) ) ;
#156 = CALENDAR_DATE ( 2018, 12, 3 ) ;
#157 = SECURITY_CLASSIFICATION ( '', '', #170 ) ;
#158 = VERTEX_POINT ( 'NONE', #56 ) ;
#159 = PRODUCT_DEFINITION ( 'UNKNOWN', '', #171, #6 ) ;
#160 = DATE_AND_TIME ( #79, #220 ) ;
#161 = ADVANCED_BREP_SHAPE_REPRESENTATION ( 'Web Model 43216_43216', ( #63, #126 ), #115 ) ;
#162 = DIRECTION ( 'NONE',  ( -0.0000000000000000000, 1.000000000000000000, 2.081668171172168500E-016 ) ) ;
#163 = LOCAL_TIME ( 15, 17, 59.00000000000000000, #217 ) ;
#164 = CC_DESIGN_PERSON_AND_ORGANIZATION_ASSIGNMENT ( #125, #191, ( #157 ) ) ;
#165 = DIRECTION ( 'NONE',  ( 0.0000000000000000000, 0.0000000000000000000, -1.000000000000000000 ) ) ;
#166 = PLANE ( 'NONE',  #123 ) ;
#167 = APPROVAL_PERSON_ORGANIZATION ( #93, #173, #53 ) ;
#168 = FACE_OUTER_BOUND ( 'NONE', #42, .T. ) ;
#169 = CARTESIAN_POINT ( 'NONE',  ( 4.750000000000000000, 12.50000000000000000, -12.50000000000000000 ) ) ;
#170 = SECURITY_CLASSIFICATION_LEVEL ( 'unclassified' ) ;
#171 = PRODUCT_DEFINITION_FORMATION_WITH_SPECIFIED_SOURCE ( 'ANY', '', #151, .NOT_KNOWN. ) ;
#172 = PERSON_AND_ORGANIZATION_ROLE ( 'creator' ) ;
#173 = APPROVAL ( #149, 'UNSPECIFIED' ) ;
#174 = LOCAL_TIME ( 15, 17, 59.00000000000000000, #229 ) ;
#175 = ORIENTED_EDGE ( 'NONE', *, *, #77, .T. ) ;
#176 = VERTEX_POINT ( 'NONE', #211 ) ;
#177 = ORIENTED_EDGE ( 'NONE', *, *, #226, .F. ) ;
#178 = CC_DESIGN_DATE_AND_TIME_ASSIGNMENT ( #122, #235, ( #157 ) ) ;
#179 = VECTOR ( 'NONE', #165, 1000.000000000000000 ) ;
#180 = CC_DESIGN_SECURITY_CLASSIFICATION ( #157, ( #171 ) ) ;
#181 = CARTESIAN_POINT ( 'NONE',  ( 4.750000000000000000, -12.50000000000000000, 12.50000000000000200 ) ) ;
#182 = ORIENTED_EDGE ( 'NONE', *, *, #3, .T. ) ;
#183 = CARTESIAN_POINT ( 'NONE',  ( 4.750000000000000000, -12.50000000000000000, -12.50000000000000500 ) ) ;
#184 = VECTOR ( 'NONE', #145, 1000.000000000000000 ) ;
#185 = CC_DESIGN_APPROVAL ( #173, ( #159 ) ) ;
#186 = APPLICATION_CONTEXT ( 'configuration controlled 3d designs of mechanical parts and assemblies' ) ;
#187 = DIRECTION ( 'NONE',  ( 0.0000000000000000000, -2.081668171172168500E-016, -1.000000000000000000 ) ) ;
#188 = APPLICATION_PROTOCOL_DEFINITION ( 'international standard', 'config_control_design', 1994, #186 ) ;
#189 = LINE ( 'NONE', #130, #23 ) ;
#190 = EDGE_LOOP ( 'NONE', ( #104, #59, #139, #25 ) ) ;
#191 = PERSON_AND_ORGANIZATION_ROLE ( 'classification_officer' ) ;
#192 = APPROVAL_STATUS ( 'not_yet_approved' ) ;
#193 = DATE_AND_TIME ( #156, #65 ) ;
#194 = PERSON_AND_ORGANIZATION ( #30, #13 ) ;
#195 = LINE ( 'NONE', #227, #138 ) ;
#196 = ORIENTED_EDGE ( 'NONE', *, *, #21, .F. ) ;
#197 = PRODUCT_RELATED_PRODUCT_CATEGORY ( 'detail', '', ( #151 ) ) ;
#198 = CALENDAR_DATE ( 2018, 12, 3 ) ;
#199 = LINE ( 'NONE', #12, #184 ) ;
#200 = AXIS2_PLACEMENT_3D ( 'NONE', #105, #40, #16 ) ;
#201 = VECTOR ( 'NONE', #203, 1000.000000000000000 ) ;
#202 = ORIENTED_EDGE ( 'NONE', *, *, #41, .F. ) ;
#203 = DIRECTION ( 'NONE',  ( -0.0000000000000000000, 1.000000000000000000, 2.081668171172168500E-016 ) ) ;
#204 = ADVANCED_FACE ( 'NONE', ( #17 ), #207, .F. ) ;
#205 = DIRECTION ( 'NONE',  ( 0.0000000000000000000, 0.0000000000000000000, 1.000000000000000000 ) ) ;
#206 = LINE ( 'NONE', #121, #113 ) ;
#207 = PLANE ( 'NONE',  #57 ) ;
#208 = ORIENTED_EDGE ( 'NONE', *, *, #77, .F. ) ;
#209 = CARTESIAN_POINT ( 'NONE',  ( 4.750000000000000000, -12.50000000000000000, -12.50000000000000500 ) ) ;
#210 = PERSON_AND_ORGANIZATION_ROLE ( 'design_owner' ) ;
#211 = CARTESIAN_POINT ( 'NONE',  ( -4.750000000000000000, 12.50000000000000000, -12.50000000000000000 ) ) ;
#212 = ORIENTED_EDGE ( 'NONE', *, *, #89, .F. ) ;
#213 = EDGE_CURVE ( 'NONE', #26, #5, #124, .T. ) ;
#214 = PERSON_AND_ORGANIZATION ( #30, #13 ) ;
#215 = LINE ( 'NONE', #64, #111 ) ;
#216 = EDGE_LOOP ( 'NONE', ( #234, #196, #177, #237 ) ) ;
#217 = COORDINATED_UNIVERSAL_TIME_OFFSET ( 5, 0, .BEHIND. ) ;
#218 = ORIENTED_EDGE ( 'NONE', *, *, #213, .F. ) ;
#219 = APPROVAL ( #192, 'UNSPECIFIED' ) ;
#220 = LOCAL_TIME ( 15, 17, 59.00000000000000000, #141 ) ;
#221 = VECTOR ( 'NONE', #134, 1000.000000000000000 ) ;
#222 = ADVANCED_FACE ( 'NONE', ( #91 ), #137, .T. ) ;
#223 = VERTEX_POINT ( 'NONE', #169 ) ;
#224 = DIRECTION ( 'NONE',  ( -0.0000000000000000000, -0.0000000000000000000, 1.000000000000000000 ) ) ;
#225 = APPROVAL_PERSON_ORGANIZATION ( #146, #2, #120 ) ;
#226 = EDGE_CURVE ( 'NONE', #28, #135, #206, .T. ) ;
#227 = CARTESIAN_POINT ( 'NONE',  ( 4.750000000000000000, 12.50000000000000000, 12.49999999999999600 ) ) ;
#228 = DIRECTION ( 'NONE',  ( 0.0000000000000000000, -0.0000000000000000000, 1.000000000000000000 ) ) ;
#229 = COORDINATED_UNIVERSAL_TIME_OFFSET ( 5, 0, .BEHIND. ) ;
#230 = CLOSED_SHELL ( 'NONE', ( #204, #7, #147, #27, #222, #110 ) ) ;
#231 = DIRECTION ( 'NONE',  ( 0.0000000000000000000, -2.081668171172168500E-016, 1.000000000000000000 ) ) ;
#232 = APPLICATION_PROTOCOL_DEFINITION ( 'international standard', 'config_control_design', 1994, #106 ) ;
#233 = APPROVAL_DATE_TIME ( #193, #219 ) ;
#234 = ORIENTED_EDGE ( 'NONE', *, *, #58, .T. ) ;
#235 = DATE_TIME_ROLE ( 'classification_date' ) ;
#236 = LOCAL_TIME ( 15, 17, 59.00000000000000000, #4 ) ;
#237 = ORIENTED_EDGE ( 'NONE', *, *, #39, .T. ) ;
ENDSEC;
END-ISO-10303-21;
