ISO-10303-21;
HEADER;
FILE_DESCRIPTION (( 'STEP AP203' ),
    '1' );
FILE_NAME ('49003_35965.step',
    '2017-07-18T13:28:02',
    ( '' ),
    ( '' ),
    'SwSTEP 2.0',
    'SolidWorks 2016',
    '' );
FILE_SCHEMA (( 'CONFIG_CONTROL_DESIGN' ));
ENDSEC;

DATA;
#1 = PLANE ( 'NONE',  #119 ) ;
#2 = PERSON_AND_ORGANIZATION_ROLE ( 'classification_officer' ) ;
#3 = CALENDAR_DATE ( 2017, 18, 7 ) ;
#4 = APPROVAL_PERSON_ORGANIZATION ( #65, #93, #359 ) ;
#5 = DESIGN_CONTEXT ( 'detailed design', #161, 'design' ) ;
#6 = LINE ( 'NONE', #197, #67 ) ;
#7 = CC_DESIGN_PERSON_AND_ORGANIZATION_ASSIGNMENT ( #232, #278, ( #312 ) ) ;
#8 = DIRECTION ( 'NONE',  ( 0.0000000000000000000, 0.7071067811865537900, 0.7071067811865412400 ) ) ;
#9 = APPROVAL ( #304, 'UNSPECIFIED' ) ;
#10 = DATE_AND_TIME ( #72, #149 ) ;
#11 = UNCERTAINTY_MEASURE_WITH_UNIT (LENGTH_MEASURE( 1.000000000000000100E-005 ), #245, 'distance_accuracy_value', 'NONE');
#12 = CARTESIAN_POINT ( 'NONE',  ( 0.0000000000000000000, -9.298916797420284900E-014, -17.67766952966378500 ) ) ;
#13 = LOCAL_TIME ( 9, 28, 2.000000000000000000, #79 ) ;
#14 = COORDINATED_UNIVERSAL_TIME_OFFSET ( 5, 0, .BEHIND. ) ;
#15 = VECTOR ( 'NONE', #353, 1000.000000000000100 ) ;
#16 = PERSON_AND_ORGANIZATION ( #286, #75 ) ;
#17 = AXIS2_PLACEMENT_3D ( 'NONE', #326, #69, #271 ) ;
#18 = PERSON_AND_ORGANIZATION ( #286, #75 ) ;
#19 = CONTEXT_DEPENDENT_SHAPE_REPRESENTATION ( #193, #156 ) ;
#20 = DATE_AND_TIME ( #90, #164 ) ;
#21 = LINE ( 'NONE', #266, #233 ) ;
#22 = CARTESIAN_POINT ( 'NONE',  ( 0.0000000000000000000, 0.0000000000000000000, 0.0000000000000000000 ) ) ;
#23 = CC_DESIGN_PERSON_AND_ORGANIZATION_ASSIGNMENT ( #153, #109, ( #312 ) ) ;
#24 = CARTESIAN_POINT ( 'NONE',  ( 19.33189675124822300, 21.14627980685099800, -38.36184642378839300 ) ) ;
#25 = PERSON_AND_ORGANIZATION ( #286, #75 ) ;
#26 = CC_DESIGN_APPROVAL ( #9, ( #348 ) ) ;
#27 = PERSON_AND_ORGANIZATION_ROLE ( 'creator' ) ;
#28 = APPROVAL_ROLE ( '' ) ;
#29 = DATE_AND_TIME ( #97, #173 ) ;
#30 = PERSON_AND_ORGANIZATION ( #286, #75 ) ;
#31 = SECURITY_CLASSIFICATION_LEVEL ( 'unclassified' ) ;
#32 = ORIENTED_EDGE ( 'NONE', *, *, #183, .T. ) ;
#33 = COORDINATED_UNIVERSAL_TIME_OFFSET ( 5, 0, .BEHIND. ) ;
#34 = DIRECTION ( 'NONE',  ( -1.000000000000000000, 0.0000000000000000000, 0.0000000000000000000 ) ) ;
#35 = PERSON_AND_ORGANIZATION ( #286, #75 ) ;
#36 = ORIENTED_EDGE ( 'NONE', *, *, #261, .T. ) ;
#37 = SECURITY_CLASSIFICATION ( '', '', #306 ) ;
#38 = CC_DESIGN_PERSON_AND_ORGANIZATION_ASSIGNMENT ( #25, #330, ( #348 ) ) ;
#39 = COORDINATED_UNIVERSAL_TIME_OFFSET ( 5, 0, .BEHIND. ) ;
#40 = ORIENTED_EDGE ( 'NONE', *, *, #146, .T. ) ;
#41 = VERTEX_POINT ( 'NONE', #325 ) ;
#42 = PLANE ( 'NONE',  #338 ) ;
#43 = DIRECTION ( 'NONE',  ( -1.000000000000000000, -0.0000000000000000000, -0.0000000000000000000 ) ) ;
#44 = AXIS2_PLACEMENT_3D ( 'NONE', #337, #167, #226 ) ;
#45 = ORIENTED_EDGE ( 'NONE', *, *, #169, .T. ) ;
#46 = DIRECTION ( 'NONE',  ( 1.000000000000000000, 0.0000000000000000000, 0.0000000000000000000 ) ) ;
#47 = APPLICATION_PROTOCOL_DEFINITION ( 'international standard', 'config_control_design', 1994, #216 ) ;
#48 = SECURITY_CLASSIFICATION_LEVEL ( 'unclassified' ) ;
#49 = DATE_AND_TIME ( #120, #200 ) ;
#50 = DATE_TIME_ROLE ( 'creation_date' ) ;
#51 = ORIENTED_EDGE ( 'NONE', *, *, #183, .F. ) ;
#52 = APPROVAL_ROLE ( '' ) ;
#53 = COORDINATED_UNIVERSAL_TIME_OFFSET ( 5, 0, .BEHIND. ) ;
#54 = VECTOR ( 'NONE', #82, 1000.000000000000000 ) ;
#55 = CC_DESIGN_PERSON_AND_ORGANIZATION_ASSIGNMENT ( #80, #132, ( #37 ) ) ;
#56 = CC_DESIGN_DATE_AND_TIME_ASSIGNMENT ( #85, #160, ( #348 ) ) ;
#57 = PERSON_AND_ORGANIZATION ( #286, #75 ) ;
#58 = PERSON_AND_ORGANIZATION ( #143, #136 ) ;
#59 = DATE_AND_TIME ( #137, #211 ) ;
#60 = DESIGN_CONTEXT ( 'detailed design', #275, 'design' ) ;
#61 = LINE ( 'NONE', #334, #272 ) ;
#62 = PERSON_AND_ORGANIZATION ( #286, #75 ) ;
#63 = ADVANCED_FACE ( 'NONE', ( #168 ), #42, .F. ) ;
#64 = LOCAL_TIME ( 9, 28, 2.000000000000000000, #144 ) ;
#65 = PERSON_AND_ORGANIZATION ( #286, #75 ) ;
#66 = DIRECTION ( 'NONE',  ( -1.000000000000000000, -0.0000000000000000000, -0.0000000000000000000 ) ) ;
#67 = VECTOR ( 'NONE', #8, 1000.000000000000100 ) ;
#68 =( NAMED_UNIT ( * ) PLANE_ANGLE_UNIT ( ) SI_UNIT ( $, .RADIAN. ) );
#69 = DIRECTION ( 'NONE',  ( 0.0000000000000000000, -0.7071067811865551200, -0.7071067811865399100 ) ) ;
#70 = CC_DESIGN_DATE_AND_TIME_ASSIGNMENT ( #145, #333, ( #37 ) ) ;
#71 = DIRECTION ( 'NONE',  ( -5.551115123125781500E-017, 1.665334536937735600E-016, 1.000000000000000000 ) ) ;
#72 = CALENDAR_DATE ( 2017, 18, 7 ) ;
#73 = PERSON_AND_ORGANIZATION_ROLE ( 'design_owner' ) ;
#74 = PRODUCT_DEFINITION_FORMATION_WITH_SPECIFIED_SOURCE ( 'ANY', '', #87, .NOT_KNOWN. ) ;
#75 = ORGANIZATION ( 'UNSPECIFIED', 'UNSPECIFIED', '' ) ;
#76 = DATE_TIME_ROLE ( 'classification_date' ) ;
#77 = APPROVAL_ROLE ( '' ) ;
#78 = PERSON_AND_ORGANIZATION_ROLE ( 'classification_officer' ) ;
#79 = COORDINATED_UNIVERSAL_TIME_OFFSET ( 5, 0, .BEHIND. ) ;
#80 = PERSON_AND_ORGANIZATION ( #286, #75 ) ;
#81 = CARTESIAN_POINT ( 'NONE',  ( 12.50000000000000000, 0.0000000000000000000, 0.0000000000000000000 ) ) ;
#82 = DIRECTION ( 'NONE',  ( -1.000000000000000000, -0.0000000000000000000, -0.0000000000000000000 ) ) ;
#83 = LINE ( 'NONE', #102, #15 ) ;
#84 = AXIS2_PLACEMENT_3D ( 'NONE', #91, #341, #86 ) ;
#85 = DATE_AND_TIME ( #158, #236 ) ;
#86 = DIRECTION ( 'NONE',  ( 0.0000000000000000000, 0.0000000000000000000, 1.000000000000000000 ) ) ;
#87 = PRODUCT ( '49003_35965', '49003_35965', '', ( #250 ) ) ;
#88 = DIRECTION ( 'NONE',  ( 0.0000000000000000000, -5.260261700116272300E-015, -1.000000000000000000 ) ) ;
#89 = APPROVAL_PERSON_ORGANIZATION ( #163, #187, #52 ) ;
#90 = CALENDAR_DATE ( 2017, 18, 7 ) ;
#91 = CARTESIAN_POINT ( 'NONE',  ( 12.50000000000000000, 0.0000000000000000000, 0.0000000000000000000 ) ) ;
#92 = LINE ( 'NONE', #141, #289 ) ;
#93 = APPROVAL ( #162, 'UNSPECIFIED' ) ;
#94 = APPROVAL_DATE_TIME ( #170, #9 ) ;
#95 = DIRECTION ( 'NONE',  ( 0.0000000000000000000, 0.0000000000000000000, 1.000000000000000000 ) ) ;
#96 = APPROVAL ( #152, 'UNSPECIFIED' ) ;
#97 = CALENDAR_DATE ( 2017, 18, 7 ) ;
#98 = DATE_AND_TIME ( #175, #255 ) ;
#99 = PRODUCT_DEFINITION_SHAPE ( 'NONE', 'NONE',  #348 ) ;
#100 = PRODUCT_RELATED_PRODUCT_CATEGORY ( 'detail', '', ( #87 ) ) ;
#101 = VERTEX_POINT ( 'NONE', #154 ) ;
#102 = CARTESIAN_POINT ( 'NONE',  ( 12.50000000000000000, 8.838834764831830200, -8.838834764832018500 ) ) ;
#103 = CARTESIAN_POINT ( 'NONE',  ( 12.50000000000000000, -9.298916797420284900E-014, -17.67766952966378500 ) ) ;
#104 =( GEOMETRIC_REPRESENTATION_CONTEXT ( 3 ) GLOBAL_UNCERTAINTY_ASSIGNED_CONTEXT ( ( #11 ) ) GLOBAL_UNIT_ASSIGNED_CONTEXT ( ( #245, #68, #270 ) ) REPRESENTATION_CONTEXT ( 'NONE', 'WORKASPACE' ) );
#105 =( LENGTH_UNIT ( ) NAMED_UNIT ( * ) SI_UNIT ( .MILLI., .METRE. ) );
#106 = APPLICATION_PROTOCOL_DEFINITION ( 'international standard', 'config_control_design', 1994, #275 ) ;
#107 = APPROVAL_ROLE ( '' ) ;
#108 = APPROVAL_DATE_TIME ( #180, #234 ) ;
#109 = PERSON_AND_ORGANIZATION_ROLE ( 'design_supplier' ) ;
#110 =( REPRESENTATION_RELATIONSHIP ('NONE','NONE', #176, #174 ) REPRESENTATION_RELATIONSHIP_WITH_TRANSFORMATION ( #307 )SHAPE_REPRESENTATION_RELATIONSHIP( ) );
#111 = EDGE_LOOP ( 'NONE', ( #118, #335, #177, #32 ) ) ;
#112 = CC_DESIGN_APPROVAL ( #93, ( #37 ) ) ;
#113 = PLANE ( 'NONE',  #84 ) ;
#114 = CC_DESIGN_APPROVAL ( #96, ( #74 ) ) ;
#115 = APPROVAL_PERSON_ORGANIZATION ( #191, #234, #28 ) ;
#116 = PERSON ( 'NAUO-PER1', 'UNSPECIFIED', 'UNSPECIFIED', ('UNSPECIFIED'), ('UNSPECIFIED'), ('UNSPECIFIED') ) ;
#117 = ORIENTED_EDGE ( 'NONE', *, *, #224, .F. ) ;
#118 = ORIENTED_EDGE ( 'NONE', *, *, #224, .T. ) ;
#119 = AXIS2_PLACEMENT_3D ( 'NONE', #291, #34, #95 ) ;
#120 = CALENDAR_DATE ( 2017, 18, 7 ) ;
#121 = ORIENTED_EDGE ( 'NONE', *, *, #169, .F. ) ;
#122 = EDGE_CURVE ( 'NONE', #260, #41, #21, .T. ) ;
#123 = APPLICATION_PROTOCOL_DEFINITION ( 'international standard', 'config_control_design', 1994, #161 ) ;
#124 = LINE ( 'NONE', #310, #54 ) ;
#125 = DIRECTION ( 'NONE',  ( 0.0000000000000000000, 0.0000000000000000000, 1.000000000000000000 ) ) ;
#126 = CC_DESIGN_SECURITY_CLASSIFICATION ( #37, ( #312 ) ) ;
#127 =( NAMED_UNIT ( * ) SI_UNIT ( $, .STERADIAN. ) SOLID_ANGLE_UNIT ( ) );
#128 = APPROVAL_ROLE ( '' ) ;
#129 = CC_DESIGN_PERSON_AND_ORGANIZATION_ASSIGNMENT ( #217, #27, ( #74 ) ) ;
#130 = DATE_AND_TIME ( #205, #285 ) ;
#131 = MECHANICAL_CONTEXT ( 'NONE', #188, 'mechanical' ) ;
#132 = PERSON_AND_ORGANIZATION_ROLE ( 'classification_officer' ) ;
#133 = APPROVAL_STATUS ( 'not_yet_approved' ) ;
#134 = PRODUCT_DEFINITION ( 'UNKNOWN', '', #312, #5 ) ;
#135 = DIRECTION ( 'NONE',  ( 0.0000000000000000000, 0.7071067811865537900, 0.7071067811865412400 ) ) ;
#136 = ORGANIZATION ( 'NAUO-ORG2', 'UNSPECIFIED', 'UNSPECIFIED' ) ;
#137 = CALENDAR_DATE ( 2017, 18, 7 ) ;
#138 = FACE_OUTER_BOUND ( 'NONE', #111, .T. ) ;
#139 = VERTEX_POINT ( 'NONE', #298 ) ;
#140 = AXIS2_PLACEMENT_3D ( 'NONE', #300, #125, #328 ) ;
#141 = CARTESIAN_POINT ( 'NONE',  ( 12.50000000000000000, 0.0000000000000000000, 0.0000000000000000000 ) ) ;
#142 = PERSON_AND_ORGANIZATION ( #286, #75 ) ;
#143 = PERSON ( 'NAUO-PER2', 'UNSPECIFIED', 'UNSPECIFIED', ('UNSPECIFIED'), ('UNSPECIFIED'), ('UNSPECIFIED') ) ;
#144 = COORDINATED_UNIVERSAL_TIME_OFFSET ( 5, 0, .BEHIND. ) ;
#145 = DATE_AND_TIME ( #222, #296 ) ;
#146 = EDGE_CURVE ( 'NONE', #139, #260, #83, .T. ) ;
#147 = LINE ( 'NONE', #103, #225 ) ;
#148 = PRODUCT_RELATED_PRODUCT_CATEGORY ( 'detail', '', ( #317 ) ) ;
#149 = LOCAL_TIME ( 9, 28, 2.000000000000000000, #228 ) ;
#150 = CC_DESIGN_PERSON_AND_ORGANIZATION_ASSIGNMENT ( #142, #218, ( #74 ) ) ;
#151 = SHAPE_DEFINITION_REPRESENTATION ( #203, #174 ) ;
#152 = APPROVAL_STATUS ( 'not_yet_approved' ) ;
#153 = PERSON_AND_ORGANIZATION ( #286, #75 ) ;
#154 = CARTESIAN_POINT ( 'NONE',  ( 0.0000000000000000000, 8.838834764831830200, -8.838834764832018500 ) ) ;
#155 = LINE ( 'NONE', #185, #311 ) ;
#156 = PRODUCT_DEFINITION_SHAPE ( 'NONE', 'NONE',  #360 ) ;
#157 = CARTESIAN_POINT ( 'NONE',  ( 0.0000000000000000000, 0.0000000000000000000, 0.0000000000000000000 ) ) ;
#158 = CALENDAR_DATE ( 2017, 18, 7 ) ;
#159 = DIRECTION ( 'NONE',  ( 0.0000000000000000000, 0.0000000000000000000, 1.000000000000000000 ) ) ;
#160 = DATE_TIME_ROLE ( 'creation_date' ) ;
#161 = APPLICATION_CONTEXT ( 'configuration controlled 3d designs of mechanical parts and assemblies' ) ;
#162 = APPROVAL_STATUS ( 'not_yet_approved' ) ;
#163 = PERSON_AND_ORGANIZATION ( #116, #238 ) ;
#164 = LOCAL_TIME ( 9, 28, 2.000000000000000000, #239 ) ;
#165 = DIRECTION ( 'NONE',  ( 0.0000000000000000000, -5.260261700116272300E-015, -1.000000000000000000 ) ) ;
#166 = DATE_TIME_ROLE ( 'classification_date' ) ;
#167 = DIRECTION ( 'NONE',  ( 0.0000000000000000000, -0.7071067811865412400, 0.7071067811865537900 ) ) ;
#168 = FACE_OUTER_BOUND ( 'NONE', #343, .T. ) ;
#169 = EDGE_CURVE ( 'NONE', #101, #41, #155, .T. ) ;
#170 = DATE_AND_TIME ( #247, #319 ) ;
#171 = CC_DESIGN_SECURITY_CLASSIFICATION ( #314, ( #360 ) ) ;
#172 = SECURITY_CLASSIFICATION ( '', '', #48 ) ;
#173 = LOCAL_TIME ( 9, 28, 2.000000000000000000, #254 ) ;
#174 = SHAPE_REPRESENTATION ( '47933', ( #140 ), #104 ) ;
#175 = CALENDAR_DATE ( 2017, 18, 7 ) ;
#176 = SHAPE_REPRESENTATION ( '49003_35965', ( #274, #198, #215 ), #235 ) ;
#177 = ORIENTED_EDGE ( 'NONE', *, *, #244, .F. ) ;
#178 = AXIS2_PLACEMENT_3D ( 'NONE', #157, #355, #186 ) ;
#179 = ADVANCED_FACE ( 'NONE', ( #297 ), #246, .F. ) ;
#180 = DATE_AND_TIME ( #259, #332 ) ;
#181 = ORIENTED_EDGE ( 'NONE', *, *, #202, .F. ) ;
#182 = CARTESIAN_POINT ( 'NONE',  ( 12.50000000000000000, 0.0000000000000000000, 0.0000000000000000000 ) ) ;
#183 = EDGE_CURVE ( 'NONE', #345, #265, #147, .T. ) ;
#184 = EDGE_LOOP ( 'NONE', ( #45, #208, #194, #36 ) ) ;
#185 = CARTESIAN_POINT ( 'NONE',  ( 0.0000000000000000000, 8.838834764831830200, -8.838834764832018500 ) ) ;
#186 = DIRECTION ( 'NONE',  ( 1.000000000000000000, 0.0000000000000000000, 0.0000000000000000000 ) ) ;
#187 = APPROVAL ( #220, 'UNKNOWN' ) ;
#188 = APPLICATION_CONTEXT ( 'configuration controlled 3d designs of mechanical parts and assemblies' ) ;
#189 = APPROVAL_ROLE ( '' ) ;
#190 = CC_DESIGN_PERSON_AND_ORGANIZATION_ASSIGNMENT ( #62, #251, ( #172 ) ) ;
#191 = PERSON_AND_ORGANIZATION ( #286, #75 ) ;
#192 = APPROVAL_STATUS ( 'not_yet_approved' ) ;
#193 =( REPRESENTATION_RELATIONSHIP ('NONE','NONE', #176, #174 ) REPRESENTATION_RELATIONSHIP_WITH_TRANSFORMATION ( #281 )SHAPE_REPRESENTATION_RELATIONSHIP( ) );
#194 = ORIENTED_EDGE ( 'NONE', *, *, #146, .F. ) ;
#195 = ORIENTED_EDGE ( 'NONE', *, *, #282, .T. ) ;
#196 = DATE_AND_TIME ( #268, #344 ) ;
#197 = CARTESIAN_POINT ( 'NONE',  ( 0.0000000000000000000, -9.298916797420284900E-014, -17.67766952966378500 ) ) ;
#198 = AXIS2_PLACEMENT_3D ( 'NONE', #24, #214, #46 ) ;
#199 = UNCERTAINTY_MEASURE_WITH_UNIT (LENGTH_MEASURE( 1.000000000000000100E-005 ), #105, 'distance_accuracy_value', 'NONE');
#200 = LOCAL_TIME ( 9, 28, 2.000000000000000000, #276 ) ;
#201 = ORIENTED_EDGE ( 'NONE', *, *, #244, .T. ) ;
#202 = EDGE_CURVE ( 'NONE', #260, #345, #92, .T. ) ;
#203 = PRODUCT_DEFINITION_SHAPE ( 'NONE', 'NONE',  #134 ) ;
#204 = CC_DESIGN_APPROVAL ( #187, ( #314 ) ) ;
#205 = CALENDAR_DATE ( 2017, 18, 7 ) ;
#206 = ADVANCED_FACE ( 'NONE', ( #138 ), #229, .F. ) ;
#207 = CC_DESIGN_DATE_AND_TIME_ASSIGNMENT ( #130, #76, ( #172 ) ) ;
#208 = ORIENTED_EDGE ( 'NONE', *, *, #122, .F. ) ;
#209 = DIRECTION ( 'NONE',  ( 0.0000000000000000000, 5.260261700116272300E-015, 1.000000000000000000 ) ) ;
#210 = APPROVAL_DATE_TIME ( #287, #303 ) ;
#211 = LOCAL_TIME ( 9, 28, 2.000000000000000000, #288 ) ;
#212 = ADVANCED_BREP_SHAPE_REPRESENTATION ( '', ( #237, #140 ), #104 ) ;
#213 = LINE ( 'NONE', #223, #283 ) ;
#214 = DIRECTION ( 'NONE',  ( 0.0000000000000000000, 0.0000000000000000000, 1.000000000000000000 ) ) ;
#215 = AXIS2_PLACEMENT_3D ( 'NONE', #248, #71, #273 ) ;
#216 = APPLICATION_CONTEXT ( 'configuration controlled 3d designs of mechanical parts and assemblies' ) ;
#217 = PERSON_AND_ORGANIZATION ( #286, #75 ) ;
#218 = PERSON_AND_ORGANIZATION_ROLE ( 'design_supplier' ) ;
#219 = PERSON_AND_ORGANIZATION_ROLE ( 'creator' ) ;
#220 = APPROVAL_STATUS ( 'not_yet_approved' ) ;
#221 = DATE_AND_TIME ( #295, #13 ) ;
#222 = CALENDAR_DATE ( 2017, 18, 7 ) ;
#223 = CARTESIAN_POINT ( 'NONE',  ( 12.50000000000000000, -9.298916797420284900E-014, -17.67766952966378500 ) ) ;
#224 = EDGE_CURVE ( 'NONE', #265, #101, #6, .T. ) ;
#225 = VECTOR ( 'NONE', #43, 1000.000000000000000 ) ;
#226 = DIRECTION ( 'NONE',  ( 0.0000000000000000000, -0.7071067811865537900, -0.7071067811865412400 ) ) ;
#227 = CC_DESIGN_DATE_AND_TIME_ASSIGNMENT ( #196, #256, ( #314 ) ) ;
#228 = COORDINATED_UNIVERSAL_TIME_OFFSET ( 5, 0, .BEHIND. ) ;
#229 = PLANE ( 'NONE',  #44 ) ;
#230 = SHAPE_DEFINITION_REPRESENTATION ( #99, #176 ) ;
#231 = APPROVAL ( #277, 'UNSPECIFIED' ) ;
#232 = PERSON_AND_ORGANIZATION ( #286, #75 ) ;
#233 = VECTOR ( 'NONE', #66, 1000.000000000000000 ) ;
#234 = APPROVAL ( #192, 'UNSPECIFIED' ) ;
#235 =( GEOMETRIC_REPRESENTATION_CONTEXT ( 3 ) GLOBAL_UNCERTAINTY_ASSIGNED_CONTEXT ( ( #199 ) ) GLOBAL_UNIT_ASSIGNED_CONTEXT ( ( #105, #301, #127 ) ) REPRESENTATION_CONTEXT ( 'NONE', 'WORKASPACE' ) );
#236 = LOCAL_TIME ( 9, 28, 2.000000000000000000, #313 ) ;
#237 = MANIFOLD_SOLID_BREP ( 'Boss-Extrude1', #280 ) ;
#238 = ORGANIZATION ( 'NAUO-ORG1', 'UNSPECIFIED', 'UNSPECIFIED' ) ;
#239 = COORDINATED_UNIVERSAL_TIME_OFFSET ( 5, 0, .BEHIND. ) ;
#240 = PRODUCT_DEFINITION_SHAPE ( 'NONE', 'NONE',  #361 ) ;
#241 = ORIENTED_EDGE ( 'NONE', *, *, #282, .F. ) ;
#242 = DIRECTION ( 'NONE',  ( 0.0000000000000000000, -0.7071067811865399100, 0.7071067811865551200 ) ) ;
#243 = EDGE_LOOP ( 'NONE', ( #121, #117, #241 ) ) ;
#244 = EDGE_CURVE ( 'NONE', #345, #139, #213, .T. ) ;
#245 =( LENGTH_UNIT ( ) NAMED_UNIT ( * ) SI_UNIT ( .MILLI., .METRE. ) );
#246 = PLANE ( 'NONE',  #17 ) ;
#247 = CALENDAR_DATE ( 2017, 18, 7 ) ;
#248 = CARTESIAN_POINT ( 'NONE',  ( 31.83189675124823000, 21.14627980685141400, -38.36184642378816500 ) ) ;
#249 = CC_DESIGN_PERSON_AND_ORGANIZATION_ASSIGNMENT ( #163, #78, ( #314 ) ) ;
#250 = MECHANICAL_CONTEXT ( 'NONE', #216, 'mechanical' ) ;
#251 = PERSON_AND_ORGANIZATION_ROLE ( 'classification_officer' ) ;
#252 = CC_DESIGN_APPROVAL ( #231, ( #172 ) ) ;
#253 = APPROVAL_STATUS ( 'not_yet_approved' ) ;
#254 = COORDINATED_UNIVERSAL_TIME_OFFSET ( 5, 0, .BEHIND. ) ;
#255 = LOCAL_TIME ( 9, 28, 2.000000000000000000, #323 ) ;
#256 = DATE_TIME_ROLE ( 'classification_date' ) ;
#257 = ORIENTED_EDGE ( 'NONE', *, *, #202, .T. ) ;
#258 = CC_DESIGN_APPROVAL ( #234, ( #134 ) ) ;
#259 = CALENDAR_DATE ( 2017, 18, 7 ) ;
#260 = VERTEX_POINT ( 'NONE', #81 ) ;
#261 = EDGE_CURVE ( 'NONE', #139, #101, #124, .T. ) ;
#262 = SECURITY_CLASSIFICATION ( '', '', #309 ) ;
#263 = CC_DESIGN_SECURITY_CLASSIFICATION ( #172, ( #74 ) ) ;
#264 = PERSON_AND_ORGANIZATION ( #286, #75 ) ;
#265 = VERTEX_POINT ( 'NONE', #12 ) ;
#266 = CARTESIAN_POINT ( 'NONE',  ( 12.50000000000000000, 0.0000000000000000000, 0.0000000000000000000 ) ) ;
#267 = APPROVAL_PERSON_ORGANIZATION ( #299, #9, #128 ) ;
#268 = CALENDAR_DATE ( 2017, 18, 7 ) ;
#269 = CC_DESIGN_PERSON_AND_ORGANIZATION_ASSIGNMENT ( #35, #219, ( #134 ) ) ;
#270 =( NAMED_UNIT ( * ) SI_UNIT ( $, .STERADIAN. ) SOLID_ANGLE_UNIT ( ) );
#271 = DIRECTION ( 'NONE',  ( 0.0000000000000000000, 0.7071067811865399100, -0.7071067811865551200 ) ) ;
#272 = VECTOR ( 'NONE', #88, 1000.000000000000000 ) ;
#273 = DIRECTION ( 'NONE',  ( -1.000000000000000000, -2.775557561562889200E-017, -5.551115123125782100E-017 ) ) ;
#274 = AXIS2_PLACEMENT_3D ( 'NONE', #22, #159, #356 ) ;
#275 = APPLICATION_CONTEXT ( 'configuration controlled 3d designs of mechanical parts and assemblies' ) ;
#276 = COORDINATED_UNIVERSAL_TIME_OFFSET ( 5, 0, .BEHIND. ) ;
#277 = APPROVAL_STATUS ( 'not_yet_approved' ) ;
#278 = PERSON_AND_ORGANIZATION_ROLE ( 'creator' ) ;
#279 = CONTEXT_DEPENDENT_SHAPE_REPRESENTATION ( #110, #240 ) ;
#280 = CLOSED_SHELL ( 'NONE', ( #179, #63, #206, #294, #322 ) ) ;
#281 = ITEM_DEFINED_TRANSFORMATION ( 'NONE', 'NONE', #198,  #140 ) ;
#282 = EDGE_CURVE ( 'NONE', #41, #265, #61, .T. ) ;
#283 = VECTOR ( 'NONE', #135, 1000.000000000000100 ) ;
#284 = CC_DESIGN_SECURITY_CLASSIFICATION ( #262, ( #361 ) ) ;
#285 = LOCAL_TIME ( 9, 28, 2.000000000000000000, #358 ) ;
#286 = PERSON ( 'UNSPECIFIED', 'UNSPECIFIED', 'UNSPECIFIED', ('UNSPECIFIED'), ('UNSPECIFIED'), ('UNSPECIFIED') ) ;
#287 = DATE_AND_TIME ( #3, #64 ) ;
#288 = COORDINATED_UNIVERSAL_TIME_OFFSET ( 5, 0, .BEHIND. ) ;
#289 = VECTOR ( 'NONE', #165, 1000.000000000000000 ) ;
#290 = CC_DESIGN_DATE_AND_TIME_ASSIGNMENT ( #98, #50, ( #134 ) ) ;
#291 = CARTESIAN_POINT ( 'NONE',  ( 0.0000000000000000000, 0.0000000000000000000, 0.0000000000000000000 ) ) ;
#292 = CC_DESIGN_PERSON_AND_ORGANIZATION_ASSIGNMENT ( #264, #331, ( #317 ) ) ;
#293 = APPROVAL_DATE_TIME ( #10, #96 ) ;
#294 = ADVANCED_FACE ( 'NONE', ( #354 ), #113, .F. ) ;
#295 = CALENDAR_DATE ( 2017, 18, 7 ) ;
#296 = LOCAL_TIME ( 9, 28, 2.000000000000000000, #14 ) ;
#297 = FACE_OUTER_BOUND ( 'NONE', #184, .T. ) ;
#298 = CARTESIAN_POINT ( 'NONE',  ( 12.50000000000000000, 8.838834764831830200, -8.838834764832018500 ) ) ;
#299 = PERSON_AND_ORGANIZATION ( #286, #75 ) ;
#300 = CARTESIAN_POINT ( 'NONE',  ( 0.0000000000000000000, 0.0000000000000000000, 0.0000000000000000000 ) ) ;
#301 =( NAMED_UNIT ( * ) PLANE_ANGLE_UNIT ( ) SI_UNIT ( $, .RADIAN. ) );
#302 = APPROVAL_PERSON_ORGANIZATION ( #18, #96, #189 ) ;
#303 = APPROVAL ( #133, 'UNKNOWN' ) ;
#304 = APPROVAL_STATUS ( 'not_yet_approved' ) ;
#305 = APPLICATION_PROTOCOL_DEFINITION ( 'international standard', 'config_control_design', 1994, #188 ) ;
#306 = SECURITY_CLASSIFICATION_LEVEL ( 'unclassified' ) ;
#307 = ITEM_DEFINED_TRANSFORMATION ( 'NONE', 'NONE', #215,  #140 ) ;
#308 = APPROVAL_DATE_TIME ( #20, #327 ) ;
#309 = SECURITY_CLASSIFICATION_LEVEL ( 'unclassified' ) ;
#310 = CARTESIAN_POINT ( 'NONE',  ( 12.50000000000000000, 8.838834764831830200, -8.838834764832018500 ) ) ;
#311 = VECTOR ( 'NONE', #242, 1000.000000000000100 ) ;
#312 = PRODUCT_DEFINITION_FORMATION_WITH_SPECIFIED_SOURCE ( 'ANY', '', #317, .NOT_KNOWN. ) ;
#313 = COORDINATED_UNIVERSAL_TIME_OFFSET ( 5, 0, .BEHIND. ) ;
#314 = SECURITY_CLASSIFICATION ( '', '', #31 ) ;
#315 = APPROVAL_DATE_TIME ( #29, #187 ) ;
#316 = APPROVAL_PERSON_ORGANIZATION ( #30, #327, #77 ) ;
#317 = PRODUCT ( '47933', '47933', '', ( #131 ) ) ;
#318 = ORIENTED_EDGE ( 'NONE', *, *, #122, .T. ) ;
#319 = LOCAL_TIME ( 9, 28, 2.000000000000000000, #33 ) ;
#320 = SHAPE_REPRESENTATION_RELATIONSHIP ( 'NONE' , 'NONE' ,  #174, #212 ) ;
#321 = CC_DESIGN_APPROVAL ( #303, ( #262 ) ) ;
#322 = ADVANCED_FACE ( 'NONE', ( #347 ), #1, .T. ) ;
#323 = COORDINATED_UNIVERSAL_TIME_OFFSET ( 5, 0, .BEHIND. ) ;
#324 = EDGE_LOOP ( 'NONE', ( #40, #257, #201 ) ) ;
#325 = CARTESIAN_POINT ( 'NONE',  ( 0.0000000000000000000, 0.0000000000000000000, 0.0000000000000000000 ) ) ;
#326 = CARTESIAN_POINT ( 'NONE',  ( 12.50000000000000000, 8.838834764831830200, -8.838834764832018500 ) ) ;
#327 = APPROVAL ( #253, 'UNSPECIFIED' ) ;
#328 = DIRECTION ( 'NONE',  ( 1.000000000000000000, 0.0000000000000000000, 0.0000000000000000000 ) ) ;
#329 = CC_DESIGN_PERSON_AND_ORGANIZATION_ASSIGNMENT ( #16, #73, ( #87 ) ) ;
#330 = PERSON_AND_ORGANIZATION_ROLE ( 'creator' ) ;
#331 = PERSON_AND_ORGANIZATION_ROLE ( 'design_owner' ) ;
#332 = LOCAL_TIME ( 9, 28, 2.000000000000000000, #39 ) ;
#333 = DATE_TIME_ROLE ( 'classification_date' ) ;
#334 = CARTESIAN_POINT ( 'NONE',  ( 0.0000000000000000000, 0.0000000000000000000, 0.0000000000000000000 ) ) ;
#335 = ORIENTED_EDGE ( 'NONE', *, *, #261, .F. ) ;
#336 = APPROVAL_ROLE ( '' ) ;
#337 = CARTESIAN_POINT ( 'NONE',  ( 12.50000000000000000, -9.298916797420284900E-014, -17.67766952966378500 ) ) ;
#338 = AXIS2_PLACEMENT_3D ( 'NONE', #182, #351, #209 ) ;
#339 = CARTESIAN_POINT ( 'NONE',  ( 12.50000000000000000, -9.298916797420284900E-014, -17.67766952966378500 ) ) ;
#340 = CC_DESIGN_DATE_AND_TIME_ASSIGNMENT ( #221, #166, ( #262 ) ) ;
#341 = DIRECTION ( 'NONE',  ( -1.000000000000000000, 0.0000000000000000000, 0.0000000000000000000 ) ) ;
#342 = APPROVAL_DATE_TIME ( #49, #231 ) ;
#343 = EDGE_LOOP ( 'NONE', ( #195, #51, #181, #318 ) ) ;
#344 = LOCAL_TIME ( 9, 28, 2.000000000000000000, #53 ) ;
#345 = VERTEX_POINT ( 'NONE', #339 ) ;
#346 = CC_DESIGN_APPROVAL ( #327, ( #312 ) ) ;
#347 = FACE_OUTER_BOUND ( 'NONE', #243, .T. ) ;
#348 = PRODUCT_DEFINITION ( 'UNKNOWN', '', #74, #60 ) ;
#349 = APPROVAL_PERSON_ORGANIZATION ( #57, #231, #107 ) ;
#350 = APPROVAL_PERSON_ORGANIZATION ( #58, #303, #336 ) ;
#351 = DIRECTION ( 'NONE',  ( 0.0000000000000000000, 1.000000000000000000, -5.260261700116272300E-015 ) ) ;
#352 = APPROVAL_DATE_TIME ( #59, #93 ) ;
#353 = DIRECTION ( 'NONE',  ( 0.0000000000000000000, -0.7071067811865399100, 0.7071067811865551200 ) ) ;
#354 = FACE_OUTER_BOUND ( 'NONE', #324, .T. ) ;
#355 = DIRECTION ( 'NONE',  ( 0.0000000000000000000, 0.0000000000000000000, 1.000000000000000000 ) ) ;
#356 = DIRECTION ( 'NONE',  ( 1.000000000000000000, 0.0000000000000000000, 0.0000000000000000000 ) ) ;
#357 = CC_DESIGN_PERSON_AND_ORGANIZATION_ASSIGNMENT ( #58, #2, ( #262 ) ) ;
#358 = COORDINATED_UNIVERSAL_TIME_OFFSET ( 5, 0, .BEHIND. ) ;
#359 = APPROVAL_ROLE ( '' ) ;
#360 = NEXT_ASSEMBLY_USAGE_OCCURRENCE ( 'NAUO1', ' ', ' ', #348, #134, $ ) ;
#361 = NEXT_ASSEMBLY_USAGE_OCCURRENCE ( 'NAUO2', ' ', ' ', #348, #134, $ ) ;
ENDSEC;
END-ISO-10303-21;
