ISO-10303-21;
HEADER;
FILE_DESCRIPTION (( 'STEP AP203' ),
    '1' );
FILE_NAME ('Web Model 30648_30648.step',
    '2017-04-11T18:20:45',
    ( '' ),
    ( '' ),
    'SwSTEP 2.0',
    'SolidWorks 2016',
    '' );
FILE_SCHEMA (( 'CONFIG_CONTROL_DESIGN' ));
ENDSEC;

DATA;
#1 = PERSON_AND_ORGANIZATION_ROLE ( 'design_supplier' ) ;
#2 = CARTESIAN_POINT ( 'NONE',  ( 0.0000000000000000000, 0.0000000000000000000, 0.0000000000000000000 ) ) ;
#3 = DIRECTION ( 'NONE',  ( 0.0000000000000000000, 0.0000000000000000000, 1.000000000000000000 ) ) ;
#4 = CIRCLE ( 'NONE', #45, 2.250000000000000000 ) ;
#5 = APPROVAL_ROLE ( '' ) ;
#6 = PERSON_AND_ORGANIZATION_ROLE ( 'creator' ) ;
#7 = SECURITY_CLASSIFICATION ( '', '', #76 ) ;
#8 =( NAMED_UNIT ( * ) SI_UNIT ( $, .STERADIAN. ) SOLID_ANGLE_UNIT ( ) );
#9 = APPROVAL_ROLE ( '' ) ;
#10 = APPROVAL ( #163, 'UNSPECIFIED' ) ;
#11 = VECTOR ( 'NONE', #73, 1000.000000000000000 ) ;
#12 = DIRECTION ( 'NONE',  ( -0.0000000000000000000, -0.0000000000000000000, -1.000000000000000000 ) ) ;
#13 = PERSON_AND_ORGANIZATION_ROLE ( 'design_owner' ) ;
#14 = COORDINATED_UNIVERSAL_TIME_OFFSET ( 5, 0, .BEHIND. ) ;
#15 = FACE_OUTER_BOUND ( 'NONE', #169, .T. ) ;
#16 = LINE ( 'NONE', #95, #11 ) ;
#17 = EDGE_CURVE ( 'NONE', #19, #105, #150, .T. ) ;
#18 = LOCAL_TIME ( 14, 20, 45.00000000000000000, #14 ) ;
#19 = VERTEX_POINT ( 'NONE', #58 ) ;
#20 = PERSON_AND_ORGANIZATION ( #96, #90 ) ;
#21 = CC_DESIGN_PERSON_AND_ORGANIZATION_ASSIGNMENT ( #102, #1, ( #104 ) ) ;
#22 = APPROVAL_PERSON_ORGANIZATION ( #40, #68, #131 ) ;
#23 = CARTESIAN_POINT ( 'NONE',  ( 0.0000000000000000000, 0.0000000000000000000, 1.000000000000000000 ) ) ;
#24 = APPROVAL_PERSON_ORGANIZATION ( #20, #108, #9 ) ;
#25 = CC_DESIGN_PERSON_AND_ORGANIZATION_ASSIGNMENT ( #33, #113, ( #104 ) ) ;
#26 = AXIS2_PLACEMENT_3D ( 'NONE', #23, #12, #36 ) ;
#27 = DESIGN_CONTEXT ( 'detailed design', #81, 'design' ) ;
#28 = DIRECTION ( 'NONE',  ( 0.0000000000000000000, 0.0000000000000000000, 1.000000000000000000 ) ) ;
#29 = CALENDAR_DATE ( 2017, 11, 4 ) ;
#30 = CYLINDRICAL_SURFACE ( 'NONE', #78, 2.250000000000000000 ) ;
#31 = PERSON_AND_ORGANIZATION_ROLE ( 'classification_officer' ) ;
#32 = DIRECTION ( 'NONE',  ( 0.0000000000000000000, 0.0000000000000000000, 1.000000000000000000 ) ) ;
#33 = PERSON_AND_ORGANIZATION ( #96, #90 ) ;
#34 = ADVANCED_FACE ( 'NONE', ( #38 ), #63, .F. ) ;
#35 = ORIENTED_EDGE ( 'NONE', *, *, #153, .T. ) ;
#36 = DIRECTION ( 'NONE',  ( -1.000000000000000000, 0.0000000000000000000, 0.0000000000000000000 ) ) ;
#37 = AXIS2_PLACEMENT_3D ( 'NONE', #152, #3, #116 ) ;
#38 = FACE_OUTER_BOUND ( 'NONE', #122, .T. ) ;
#39 = LINE ( 'NONE', #62, #123 ) ;
#40 = PERSON_AND_ORGANIZATION ( #96, #90 ) ;
#41 = ORIENTED_EDGE ( 'NONE', *, *, #109, .F. ) ;
#42 = DIRECTION ( 'NONE',  ( -0.0000000000000000000, -0.0000000000000000000, -1.000000000000000000 ) ) ;
#43 = PERSON_AND_ORGANIZATION ( #96, #90 ) ;
#44 = CC_DESIGN_APPROVAL ( #10, ( #104 ) ) ;
#45 = AXIS2_PLACEMENT_3D ( 'NONE', #71, #159, #160 ) ;
#46 = ORIENTED_EDGE ( 'NONE', *, *, #52, .T. ) ;
#47 = DIRECTION ( 'NONE',  ( 1.000000000000000000, 0.0000000000000000000, -0.0000000000000000000 ) ) ;
#48 = ORIENTED_EDGE ( 'NONE', *, *, #146, .T. ) ;
#49 = ORIENTED_EDGE ( 'NONE', *, *, #17, .T. ) ;
#50 = APPROVAL_STATUS ( 'not_yet_approved' ) ;
#51 = CALENDAR_DATE ( 2017, 11, 4 ) ;
#52 = EDGE_CURVE ( 'NONE', #84, #19, #39, .T. ) ;
#53 = LOCAL_TIME ( 14, 20, 45.00000000000000000, #172 ) ;
#54 = APPROVAL_PERSON_ORGANIZATION ( #154, #10, #5 ) ;
#55 = ADVANCED_FACE ( 'NONE', ( #15 ), #120, .T. ) ;
#56 = EDGE_LOOP ( 'NONE', ( #35, #48 ) ) ;
#57 = ORIENTED_EDGE ( 'NONE', *, *, #146, .F. ) ;
#58 = CARTESIAN_POINT ( 'NONE',  ( 2.250000000000000000, 2.755455298081544300E-016, 0.0000000000000000000 ) ) ;
#59 = CALENDAR_DATE ( 2017, 11, 4 ) ;
#60 = CC_DESIGN_PERSON_AND_ORGANIZATION_ASSIGNMENT ( #43, #13, ( #66 ) ) ;
#61 = DIRECTION ( 'NONE',  ( 1.000000000000000000, 0.0000000000000000000, -0.0000000000000000000 ) ) ;
#62 = CARTESIAN_POINT ( 'NONE',  ( 2.250000000000000000, 2.755455298081544300E-016, 1.000000000000000000 ) ) ;
#63 = PLANE ( 'NONE',  #148 ) ;
#64 = AXIS2_PLACEMENT_3D ( 'NONE', #2, #28, #156 ) ;
#65 = ADVANCED_BREP_SHAPE_REPRESENTATION ( 'Web Model 30648_30648', ( #114, #64 ), #75 ) ;
#66 = PRODUCT ( 'Web Model 30648_30648', 'Web Model 30648_30648', '', ( #168 ) ) ;
#67 = CARTESIAN_POINT ( 'NONE',  ( 0.0000000000000000000, 0.0000000000000000000, 1.000000000000000000 ) ) ;
#68 = APPROVAL ( #110, 'UNSPECIFIED' ) ;
#69 = DIRECTION ( 'NONE',  ( 1.000000000000000000, 0.0000000000000000000, 0.0000000000000000000 ) ) ;
#70 = PERSON_AND_ORGANIZATION ( #96, #90 ) ;
#71 = CARTESIAN_POINT ( 'NONE',  ( 0.0000000000000000000, 0.0000000000000000000, 1.000000000000000000 ) ) ;
#72 = ORIENTED_EDGE ( 'NONE', *, *, #119, .T. ) ;
#73 = DIRECTION ( 'NONE',  ( -0.0000000000000000000, -0.0000000000000000000, -1.000000000000000000 ) ) ;
#74 = ORIENTED_EDGE ( 'NONE', *, *, #119, .F. ) ;
#75 =( GEOMETRIC_REPRESENTATION_CONTEXT ( 3 ) GLOBAL_UNCERTAINTY_ASSIGNED_CONTEXT ( ( #80 ) ) GLOBAL_UNIT_ASSIGNED_CONTEXT ( ( #128, #164, #8 ) ) REPRESENTATION_CONTEXT ( 'NONE', 'WORKASPACE' ) );
#76 = SECURITY_CLASSIFICATION_LEVEL ( 'unclassified' ) ;
#77 = VERTEX_POINT ( 'NONE', #162 ) ;
#78 = AXIS2_PLACEMENT_3D ( 'NONE', #137, #42, #125 ) ;
#79 = CC_DESIGN_DATE_AND_TIME_ASSIGNMENT ( #136, #99, ( #165 ) ) ;
#80 = UNCERTAINTY_MEASURE_WITH_UNIT (LENGTH_MEASURE( 1.000000000000000100E-005 ), #128, 'distance_accuracy_value', 'NONE');
#81 = APPLICATION_CONTEXT ( 'configuration controlled 3d designs of mechanical parts and assemblies' ) ;
#82 = DATE_AND_TIME ( #174, #175 ) ;
#83 = ADVANCED_FACE ( 'NONE', ( #147 ), #30, .T. ) ;
#84 = VERTEX_POINT ( 'NONE', #118 ) ;
#85 = ORIENTED_EDGE ( 'NONE', *, *, #52, .F. ) ;
#86 = CIRCLE ( 'NONE', #91, 2.250000000000000000 ) ;
#87 = CARTESIAN_POINT ( 'NONE',  ( 0.0000000000000000000, 0.0000000000000000000, 0.0000000000000000000 ) ) ;
#88 = APPROVAL_DATE_TIME ( #92, #10 ) ;
#89 = ADVANCED_FACE ( 'NONE', ( #107 ), #106, .T. ) ;
#90 = ORGANIZATION ( 'UNSPECIFIED', 'UNSPECIFIED', '' ) ;
#91 = AXIS2_PLACEMENT_3D ( 'NONE', #87, #127, #69 ) ;
#92 = DATE_AND_TIME ( #51, #18 ) ;
#93 = ORIENTED_EDGE ( 'NONE', *, *, #109, .T. ) ;
#94 = CC_DESIGN_PERSON_AND_ORGANIZATION_ASSIGNMENT ( #144, #6, ( #165 ) ) ;
#95 = CARTESIAN_POINT ( 'NONE',  ( -2.250000000000000000, 0.0000000000000000000, 1.000000000000000000 ) ) ;
#96 = PERSON ( 'UNSPECIFIED', 'UNSPECIFIED', 'UNSPECIFIED', ('UNSPECIFIED'), ('UNSPECIFIED'), ('UNSPECIFIED') ) ;
#97 = APPLICATION_PROTOCOL_DEFINITION ( 'international standard', 'config_control_design', 1994, #81 ) ;
#98 = DATE_AND_TIME ( #59, #100 ) ;
#99 = DATE_TIME_ROLE ( 'creation_date' ) ;
#100 = LOCAL_TIME ( 14, 20, 45.00000000000000000, #158 ) ;
#101 = SHAPE_DEFINITION_REPRESENTATION ( #161, #65 ) ;
#102 = PERSON_AND_ORGANIZATION ( #96, #90 ) ;
#103 = CARTESIAN_POINT ( 'NONE',  ( 0.0000000000000000000, 0.0000000000000000000, 0.0000000000000000000 ) ) ;
#104 = PRODUCT_DEFINITION_FORMATION_WITH_SPECIFIED_SOURCE ( 'ANY', '', #66, .NOT_KNOWN. ) ;
#105 = VERTEX_POINT ( 'NONE', #130 ) ;
#106 = PLANE ( 'NONE',  #139 ) ;
#107 = FACE_OUTER_BOUND ( 'NONE', #56, .T. ) ;
#108 = APPROVAL ( #50, 'UNSPECIFIED' ) ;
#109 = EDGE_CURVE ( 'NONE', #77, #105, #16, .T. ) ;
#110 = APPROVAL_STATUS ( 'not_yet_approved' ) ;
#111 = CC_DESIGN_DATE_AND_TIME_ASSIGNMENT ( #157, #171, ( #7 ) ) ;
#112 = COORDINATED_UNIVERSAL_TIME_OFFSET ( 5, 0, .BEHIND. ) ;
#113 = PERSON_AND_ORGANIZATION_ROLE ( 'creator' ) ;
#114 = MANIFOLD_SOLID_BREP ( 'Extrude1', #138 ) ;
#115 = CARTESIAN_POINT ( 'NONE',  ( 0.0000000000000000000, 0.0000000000000000000, 0.0000000000000000000 ) ) ;
#116 = DIRECTION ( 'NONE',  ( 1.000000000000000000, 0.0000000000000000000, 0.0000000000000000000 ) ) ;
#117 = CC_DESIGN_APPROVAL ( #108, ( #7 ) ) ;
#118 = CARTESIAN_POINT ( 'NONE',  ( 2.250000000000000000, 2.755455298081544300E-016, 1.000000000000000000 ) ) ;
#119 = EDGE_CURVE ( 'NONE', #105, #19, #86, .T. ) ;
#120 = CYLINDRICAL_SURFACE ( 'NONE', #26, 2.250000000000000000 ) ;
#121 = CC_DESIGN_PERSON_AND_ORGANIZATION_ASSIGNMENT ( #70, #31, ( #7 ) ) ;
#122 = EDGE_LOOP ( 'NONE', ( #74, #166 ) ) ;
#123 = VECTOR ( 'NONE', #167, 1000.000000000000000 ) ;
#124 = CC_DESIGN_SECURITY_CLASSIFICATION ( #7, ( #104 ) ) ;
#125 = DIRECTION ( 'NONE',  ( -1.000000000000000000, 0.0000000000000000000, 0.0000000000000000000 ) ) ;
#126 = CALENDAR_DATE ( 2017, 11, 4 ) ;
#127 = DIRECTION ( 'NONE',  ( 0.0000000000000000000, 0.0000000000000000000, 1.000000000000000000 ) ) ;
#128 =( LENGTH_UNIT ( ) NAMED_UNIT ( * ) SI_UNIT ( .MILLI., .METRE. ) );
#129 = APPROVAL_DATE_TIME ( #82, #68 ) ;
#130 = CARTESIAN_POINT ( 'NONE',  ( -2.250000000000000000, 0.0000000000000000000, 0.0000000000000000000 ) ) ;
#131 = APPROVAL_ROLE ( '' ) ;
#132 = APPLICATION_PROTOCOL_DEFINITION ( 'international standard', 'config_control_design', 1994, #155 ) ;
#133 = APPROVAL_DATE_TIME ( #98, #108 ) ;
#134 = PRODUCT_RELATED_PRODUCT_CATEGORY ( 'detail', '', ( #66 ) ) ;
#135 = CC_DESIGN_APPROVAL ( #68, ( #165 ) ) ;
#136 = DATE_AND_TIME ( #29, #170 ) ;
#137 = CARTESIAN_POINT ( 'NONE',  ( 0.0000000000000000000, 0.0000000000000000000, 1.000000000000000000 ) ) ;
#138 = CLOSED_SHELL ( 'NONE', ( #83, #55, #89, #34 ) ) ;
#139 = AXIS2_PLACEMENT_3D ( 'NONE', #67, #143, #61 ) ;
#140 = DIRECTION ( 'NONE',  ( 0.0000000000000000000, 0.0000000000000000000, 1.000000000000000000 ) ) ;
#141 = DIRECTION ( 'NONE',  ( 1.000000000000000000, 0.0000000000000000000, 0.0000000000000000000 ) ) ;
#142 = ORIENTED_EDGE ( 'NONE', *, *, #153, .F. ) ;
#143 = DIRECTION ( 'NONE',  ( 0.0000000000000000000, 0.0000000000000000000, 1.000000000000000000 ) ) ;
#144 = PERSON_AND_ORGANIZATION ( #96, #90 ) ;
#145 = CIRCLE ( 'NONE', #37, 2.250000000000000000 ) ;
#146 = EDGE_CURVE ( 'NONE', #84, #77, #4, .T. ) ;
#147 = FACE_OUTER_BOUND ( 'NONE', #173, .T. ) ;
#148 = AXIS2_PLACEMENT_3D ( 'NONE', #115, #32, #47 ) ;
#149 = AXIS2_PLACEMENT_3D ( 'NONE', #103, #140, #141 ) ;
#150 = CIRCLE ( 'NONE', #149, 2.250000000000000000 ) ;
#151 = COORDINATED_UNIVERSAL_TIME_OFFSET ( 5, 0, .BEHIND. ) ;
#152 = CARTESIAN_POINT ( 'NONE',  ( 0.0000000000000000000, 0.0000000000000000000, 1.000000000000000000 ) ) ;
#153 = EDGE_CURVE ( 'NONE', #77, #84, #145, .T. ) ;
#154 = PERSON_AND_ORGANIZATION ( #96, #90 ) ;
#155 = APPLICATION_CONTEXT ( 'configuration controlled 3d designs of mechanical parts and assemblies' ) ;
#156 = DIRECTION ( 'NONE',  ( 1.000000000000000000, 0.0000000000000000000, 0.0000000000000000000 ) ) ;
#157 = DATE_AND_TIME ( #126, #53 ) ;
#158 = COORDINATED_UNIVERSAL_TIME_OFFSET ( 5, 0, .BEHIND. ) ;
#159 = DIRECTION ( 'NONE',  ( 0.0000000000000000000, 0.0000000000000000000, 1.000000000000000000 ) ) ;
#160 = DIRECTION ( 'NONE',  ( 1.000000000000000000, 0.0000000000000000000, 0.0000000000000000000 ) ) ;
#161 = PRODUCT_DEFINITION_SHAPE ( 'NONE', 'NONE',  #165 ) ;
#162 = CARTESIAN_POINT ( 'NONE',  ( -2.250000000000000000, 0.0000000000000000000, 1.000000000000000000 ) ) ;
#163 = APPROVAL_STATUS ( 'not_yet_approved' ) ;
#164 =( NAMED_UNIT ( * ) PLANE_ANGLE_UNIT ( ) SI_UNIT ( $, .RADIAN. ) );
#165 = PRODUCT_DEFINITION ( 'UNKNOWN', '', #104, #27 ) ;
#166 = ORIENTED_EDGE ( 'NONE', *, *, #17, .F. ) ;
#167 = DIRECTION ( 'NONE',  ( -0.0000000000000000000, -0.0000000000000000000, -1.000000000000000000 ) ) ;
#168 = MECHANICAL_CONTEXT ( 'NONE', #155, 'mechanical' ) ;
#169 = EDGE_LOOP ( 'NONE', ( #85, #142, #93, #72 ) ) ;
#170 = LOCAL_TIME ( 14, 20, 45.00000000000000000, #112 ) ;
#171 = DATE_TIME_ROLE ( 'classification_date' ) ;
#172 = COORDINATED_UNIVERSAL_TIME_OFFSET ( 5, 0, .BEHIND. ) ;
#173 = EDGE_LOOP ( 'NONE', ( #57, #46, #49, #41 ) ) ;
#174 = CALENDAR_DATE ( 2017, 11, 4 ) ;
#175 = LOCAL_TIME ( 14, 20, 45.00000000000000000, #151 ) ;
ENDSEC;
END-ISO-10303-21;
