ISO-10303-21;
HEADER;
FILE_DESCRIPTION (( 'STEP AP203' ),
    '1' );
FILE_NAME ('Web Model 14684_14694.step',
    '2020-04-13T13:40:17',
    ( '' ),
    ( '' ),
    'SwSTEP 2.0',
    'SolidWorks 2018',
    '' );
FILE_SCHEMA (( 'CONFIG_CONTROL_DESIGN' ));
ENDSEC;

DATA;
#1 = APPROVAL_STATUS ( 'not_yet_approved' ) ;
#2 = PRODUCT_DEFINITION ( 'UNKNOWN', '', #41, #167 ) ;
#3 = LINE ( 'NONE', #66, #145 ) ;
#4 =( LENGTH_UNIT ( ) NAMED_UNIT ( * ) SI_UNIT ( .MILLI., .METRE. ) );
#5 = CALENDAR_DATE ( 2020, 13, 4 ) ;
#6 = EDGE_CURVE ( 'NONE', #117, #154, #164, .T. ) ;
#7 = COORDINATED_UNIVERSAL_TIME_OFFSET ( 5, 0, .BEHIND. ) ;
#8 = SHAPE_DEFINITION_REPRESENTATION ( #78, #93 ) ;
#9 = EDGE_CURVE ( 'NONE', #58, #123, #119, .T. ) ;
#10 = CC_DESIGN_SECURITY_CLASSIFICATION ( #107, ( #41 ) ) ;
#11 = ORIENTED_EDGE ( 'NONE', *, *, #6, .F. ) ;
#12 = PLANE ( 'NONE',  #75 ) ;
#13 = ADVANCED_FACE ( 'NONE', ( #130 ), #50, .T. ) ;
#14 = PLANE ( 'NONE',  #132 ) ;
#15 = APPLICATION_PROTOCOL_DEFINITION ( 'international standard', 'config_control_design', 1994, #16 ) ;
#16 = APPLICATION_CONTEXT ( 'configuration controlled 3d designs of mechanical parts and assemblies' ) ;
#17 = MANIFOLD_SOLID_BREP ( 'Boss-Extrude1', #99 ) ;
#18 = PERSON_AND_ORGANIZATION_ROLE ( 'design_supplier' ) ;
#19 = PERSON ( 'UNSPECIFIED', 'UNSPECIFIED', 'UNSPECIFIED', ('UNSPECIFIED'), ('UNSPECIFIED'), ('UNSPECIFIED') ) ;
#20 = PERSON_AND_ORGANIZATION ( #19, #85 ) ;
#21 = PERSON_AND_ORGANIZATION ( #19, #85 ) ;
#22 = CALENDAR_DATE ( 2020, 13, 4 ) ;
#23 = COORDINATED_UNIVERSAL_TIME_OFFSET ( 5, 0, .BEHIND. ) ;
#24 = EDGE_LOOP ( 'NONE', ( #109, #124 ) ) ;
#25 = AXIS2_PLACEMENT_3D ( 'NONE', #171, #147, #61 ) ;
#26 = DIRECTION ( 'NONE',  ( 0.0000000000000000000, 0.0000000000000000000, -1.000000000000000000 ) ) ;
#27 = LOCAL_TIME ( 9, 40, 17.00000000000000000, #7 ) ;
#28 = CARTESIAN_POINT ( 'NONE',  ( -1.500000000000000000, 0.0000000000000000000, 13.97000000000000064 ) ) ;
#29 = CARTESIAN_POINT ( 'NONE',  ( -1.500000000000000000, 0.0000000000000000000, 0.0000000000000000000 ) ) ;
#30 = LOCAL_TIME ( 9, 40, 17.00000000000000000, #111 ) ;
#31 = ADVANCED_FACE ( 'NONE', ( #42 ), #12, .F. ) ;
#32 = APPROVAL_STATUS ( 'not_yet_approved' ) ;
#33 = CC_DESIGN_DATE_AND_TIME_ASSIGNMENT ( #110, #94, ( #2 ) ) ;
#34 =( NAMED_UNIT ( * ) PLANE_ANGLE_UNIT ( ) SI_UNIT ( $, .RADIAN. ) );
#35 = CALENDAR_DATE ( 2020, 13, 4 ) ;
#36 = SECURITY_CLASSIFICATION_LEVEL ( 'unclassified' ) ;
#37 = ORIENTED_EDGE ( 'NONE', *, *, #175, .F. ) ;
#38 = AXIS2_PLACEMENT_3D ( 'NONE', #125, #46, #105 ) ;
#39 = CIRCLE ( 'NONE', #97, 13.97000000000000064 ) ;
#40 = UNCERTAINTY_MEASURE_WITH_UNIT (LENGTH_MEASURE( 1.000000000000000082E-05 ), #4, 'distance_accuracy_value', 'NONE');
#41 = PRODUCT_DEFINITION_FORMATION_WITH_SPECIFIED_SOURCE ( 'ANY', '', #168, .NOT_KNOWN. ) ;
#42 = FACE_OUTER_BOUND ( 'NONE', #86, .T. ) ;
#43 = CARTESIAN_POINT ( 'NONE',  ( 1.500000000000000000, 1.710831578408852315E-15, -13.97000000000000064 ) ) ;
#44 = APPROVAL ( #1, 'UNSPECIFIED' ) ;
#45 = DIRECTION ( 'NONE',  ( 0.0000000000000000000, 0.0000000000000000000, -1.000000000000000000 ) ) ;
#46 = DIRECTION ( 'NONE',  ( -1.000000000000000000, -0.0000000000000000000, -0.0000000000000000000 ) ) ;
#47 = PERSON_AND_ORGANIZATION ( #19, #85 ) ;
#48 = ORIENTED_EDGE ( 'NONE', *, *, #68, .F. ) ;
#49 = AXIS2_PLACEMENT_3D ( 'NONE', #59, #135, #88 ) ;
#50 = CYLINDRICAL_SURFACE ( 'NONE', #38, 13.97000000000000064 ) ;
#51 =( NAMED_UNIT ( * ) SI_UNIT ( $, .STERADIAN. ) SOLID_ANGLE_UNIT ( ) );
#52 = PERSON_AND_ORGANIZATION ( #19, #85 ) ;
#53 =( GEOMETRIC_REPRESENTATION_CONTEXT ( 3 ) GLOBAL_UNCERTAINTY_ASSIGNED_CONTEXT ( ( #40 ) ) GLOBAL_UNIT_ASSIGNED_CONTEXT ( ( #4, #34, #51 ) ) REPRESENTATION_CONTEXT ( 'NONE', 'WORKASPACE' ) );
#54 = FACE_OUTER_BOUND ( 'NONE', #65, .T. ) ;
#55 = ORIENTED_EDGE ( 'NONE', *, *, #175, .T. ) ;
#56 = APPROVAL_PERSON_ORGANIZATION ( #131, #44, #96 ) ;
#57 = AXIS2_PLACEMENT_3D ( 'NONE', #114, #160, #103 ) ;
#58 = VERTEX_POINT ( 'NONE', #74 ) ;
#59 = CARTESIAN_POINT ( 'NONE',  ( -1.500000000000000000, 0.0000000000000000000, 0.0000000000000000000 ) ) ;
#60 = LOCAL_TIME ( 9, 40, 17.00000000000000000, #23 ) ;
#61 = DIRECTION ( 'NONE',  ( 0.0000000000000000000, 0.0000000000000000000, -1.000000000000000000 ) ) ;
#62 = CC_DESIGN_PERSON_AND_ORGANIZATION_ASSIGNMENT ( #52, #18, ( #41 ) ) ;
#63 = APPROVAL_ROLE ( '' ) ;
#64 = DATE_AND_TIME ( #35, #165 ) ;
#65 = EDGE_LOOP ( 'NONE', ( #146, #95, #100, #37 ) ) ;
#66 = CARTESIAN_POINT ( 'NONE',  ( 1.500000000000000000, 0.0000000000000000000, 13.97000000000000064 ) ) ;
#67 = CC_DESIGN_APPROVAL ( #80, ( #41 ) ) ;
#68 = EDGE_CURVE ( 'NONE', #123, #58, #39, .T. ) ;
#69 = CC_DESIGN_APPROVAL ( #157, ( #2 ) ) ;
#70 = PERSON_AND_ORGANIZATION ( #19, #85 ) ;
#71 = DATE_AND_TIME ( #22, #27 ) ;
#72 = CC_DESIGN_PERSON_AND_ORGANIZATION_ASSIGNMENT ( #70, #108, ( #2 ) ) ;
#73 = LINE ( 'NONE', #43, #90 ) ;
#74 = CARTESIAN_POINT ( 'NONE',  ( 1.500000000000000000, 1.710831578408852315E-15, -13.97000000000000064 ) ) ;
#75 = AXIS2_PLACEMENT_3D ( 'NONE', #29, #172, #26 ) ;
#76 = CARTESIAN_POINT ( 'NONE',  ( 1.500000000000000000, 0.0000000000000000000, 0.0000000000000000000 ) ) ;
#77 = APPLICATION_PROTOCOL_DEFINITION ( 'international standard', 'config_control_design', 1994, #163 ) ;
#78 = PRODUCT_DEFINITION_SHAPE ( 'NONE', 'NONE',  #2 ) ;
#79 = MECHANICAL_CONTEXT ( 'NONE', #16, 'mechanical' ) ;
#80 = APPROVAL ( #139, 'UNSPECIFIED' ) ;
#81 = CIRCLE ( 'NONE', #49, 13.97000000000000064 ) ;
#82 = PRODUCT_RELATED_PRODUCT_CATEGORY ( 'detail', '', ( #168 ) ) ;
#83 = ORIENTED_EDGE ( 'NONE', *, *, #120, .T. ) ;
#84 = CC_DESIGN_APPROVAL ( #44, ( #107 ) ) ;
#85 = ORGANIZATION ( 'UNSPECIFIED', 'UNSPECIFIED', '' ) ;
#86 = EDGE_LOOP ( 'NONE', ( #169, #11 ) ) ;
#87 = DIRECTION ( 'NONE',  ( 0.0000000000000000000, 0.0000000000000000000, -1.000000000000000000 ) ) ;
#88 = DIRECTION ( 'NONE',  ( 0.0000000000000000000, 0.0000000000000000000, -1.000000000000000000 ) ) ;
#89 = CARTESIAN_POINT ( 'NONE',  ( 1.500000000000000000, 0.0000000000000000000, 13.97000000000000064 ) ) ;
#90 = VECTOR ( 'NONE', #137, 1000.000000000000000 ) ;
#91 = DIRECTION ( 'NONE',  ( 1.000000000000000000, 0.0000000000000000000, 0.0000000000000000000 ) ) ;
#92 = CC_DESIGN_PERSON_AND_ORGANIZATION_ASSIGNMENT ( #141, #116, ( #107 ) ) ;
#93 = ADVANCED_BREP_SHAPE_REPRESENTATION ( 'Web Model 14684_14694', ( #17, #150 ), #53 ) ;
#94 = DATE_TIME_ROLE ( 'creation_date' ) ;
#95 = ORIENTED_EDGE ( 'NONE', *, *, #161, .T. ) ;
#96 = APPROVAL_ROLE ( '' ) ;
#97 = AXIS2_PLACEMENT_3D ( 'NONE', #113, #91, #136 ) ;
#98 = LOCAL_TIME ( 9, 40, 17.00000000000000000, #158 ) ;
#99 = CLOSED_SHELL ( 'NONE', ( #148, #13, #153, #31 ) ) ;
#100 = ORIENTED_EDGE ( 'NONE', *, *, #6, .T. ) ;
#101 = FACE_OUTER_BOUND ( 'NONE', #24, .T. ) ;
#102 = DIRECTION ( 'NONE',  ( 1.000000000000000000, 0.0000000000000000000, 0.0000000000000000000 ) ) ;
#103 = DIRECTION ( 'NONE',  ( 0.0000000000000000000, 0.0000000000000000000, 1.000000000000000000 ) ) ;
#104 = CC_DESIGN_DATE_AND_TIME_ASSIGNMENT ( #64, #127, ( #107 ) ) ;
#105 = DIRECTION ( 'NONE',  ( 0.0000000000000000000, 0.0000000000000000000, 1.000000000000000000 ) ) ;
#106 = APPROVAL_DATE_TIME ( #133, #157 ) ;
#107 = SECURITY_CLASSIFICATION ( '', '', #36 ) ;
#108 = PERSON_AND_ORGANIZATION_ROLE ( 'creator' ) ;
#109 = ORIENTED_EDGE ( 'NONE', *, *, #68, .T. ) ;
#110 = DATE_AND_TIME ( #170, #60 ) ;
#111 = COORDINATED_UNIVERSAL_TIME_OFFSET ( 5, 0, .BEHIND. ) ;
#112 = CARTESIAN_POINT ( 'NONE',  ( 1.500000000000000000, 0.0000000000000000000, 0.0000000000000000000 ) ) ;
#113 = CARTESIAN_POINT ( 'NONE',  ( 1.500000000000000000, 0.0000000000000000000, 0.0000000000000000000 ) ) ;
#114 = CARTESIAN_POINT ( 'NONE',  ( 1.500000000000000000, 0.0000000000000000000, 0.0000000000000000000 ) ) ;
#115 = PERSON_AND_ORGANIZATION ( #19, #85 ) ;
#116 = PERSON_AND_ORGANIZATION_ROLE ( 'classification_officer' ) ;
#117 = VERTEX_POINT ( 'NONE', #174 ) ;
#118 = DIRECTION ( 'NONE',  ( 1.000000000000000000, 0.0000000000000000000, 0.0000000000000000000 ) ) ;
#119 = CIRCLE ( 'NONE', #134, 13.97000000000000064 ) ;
#120 = EDGE_CURVE ( 'NONE', #154, #117, #81, .T. ) ;
#121 = ORIENTED_EDGE ( 'NONE', *, *, #161, .F. ) ;
#122 = APPROVAL_DATE_TIME ( #156, #80 ) ;
#123 = VERTEX_POINT ( 'NONE', #89 ) ;
#124 = ORIENTED_EDGE ( 'NONE', *, *, #9, .T. ) ;
#125 = CARTESIAN_POINT ( 'NONE',  ( 1.500000000000000000, 0.0000000000000000000, 0.0000000000000000000 ) ) ;
#126 = PERSON_AND_ORGANIZATION_ROLE ( 'creator' ) ;
#127 = DATE_TIME_ROLE ( 'classification_date' ) ;
#128 = APPROVAL_PERSON_ORGANIZATION ( #20, #80, #63 ) ;
#129 = CYLINDRICAL_SURFACE ( 'NONE', #57, 13.97000000000000064 ) ;
#130 = FACE_OUTER_BOUND ( 'NONE', #159, .T. ) ;
#131 = PERSON_AND_ORGANIZATION ( #19, #85 ) ;
#132 = AXIS2_PLACEMENT_3D ( 'NONE', #112, #149, #45 ) ;
#133 = DATE_AND_TIME ( #166, #30 ) ;
#134 = AXIS2_PLACEMENT_3D ( 'NONE', #76, #102, #87 ) ;
#135 = DIRECTION ( 'NONE',  ( 1.000000000000000000, 0.0000000000000000000, 0.0000000000000000000 ) ) ;
#136 = DIRECTION ( 'NONE',  ( 0.0000000000000000000, 0.0000000000000000000, -1.000000000000000000 ) ) ;
#137 = DIRECTION ( 'NONE',  ( -1.000000000000000000, -0.0000000000000000000, -0.0000000000000000000 ) ) ;
#138 = COORDINATED_UNIVERSAL_TIME_OFFSET ( 5, 0, .BEHIND. ) ;
#139 = APPROVAL_STATUS ( 'not_yet_approved' ) ;
#140 = PERSON_AND_ORGANIZATION_ROLE ( 'design_owner' ) ;
#141 = PERSON_AND_ORGANIZATION ( #19, #85 ) ;
#142 = CC_DESIGN_PERSON_AND_ORGANIZATION_ASSIGNMENT ( #47, #126, ( #41 ) ) ;
#143 = APPROVAL_PERSON_ORGANIZATION ( #115, #157, #151 ) ;
#144 = APPROVAL_DATE_TIME ( #71, #44 ) ;
#145 = VECTOR ( 'NONE', #152, 1000.000000000000000 ) ;
#146 = ORIENTED_EDGE ( 'NONE', *, *, #9, .F. ) ;
#147 = DIRECTION ( 'NONE',  ( 1.000000000000000000, 0.0000000000000000000, 0.0000000000000000000 ) ) ;
#148 = ADVANCED_FACE ( 'NONE', ( #54 ), #129, .T. ) ;
#149 = DIRECTION ( 'NONE',  ( 1.000000000000000000, 0.0000000000000000000, 0.0000000000000000000 ) ) ;
#150 = AXIS2_PLACEMENT_3D ( 'NONE', #155, #162, #118 ) ;
#151 = APPROVAL_ROLE ( '' ) ;
#152 = DIRECTION ( 'NONE',  ( -1.000000000000000000, -0.0000000000000000000, -0.0000000000000000000 ) ) ;
#153 = ADVANCED_FACE ( 'NONE', ( #101 ), #14, .T. ) ;
#154 = VERTEX_POINT ( 'NONE', #28 ) ;
#155 = CARTESIAN_POINT ( 'NONE',  ( 0.0000000000000000000, 0.0000000000000000000, 0.0000000000000000000 ) ) ;
#156 = DATE_AND_TIME ( #5, #98 ) ;
#157 = APPROVAL ( #32, 'UNSPECIFIED' ) ;
#158 = COORDINATED_UNIVERSAL_TIME_OFFSET ( 5, 0, .BEHIND. ) ;
#159 = EDGE_LOOP ( 'NONE', ( #121, #48, #55, #83 ) ) ;
#160 = DIRECTION ( 'NONE',  ( -1.000000000000000000, -0.0000000000000000000, -0.0000000000000000000 ) ) ;
#161 = EDGE_CURVE ( 'NONE', #58, #117, #73, .T. ) ;
#162 = DIRECTION ( 'NONE',  ( 0.0000000000000000000, 0.0000000000000000000, 1.000000000000000000 ) ) ;
#163 = APPLICATION_CONTEXT ( 'configuration controlled 3d designs of mechanical parts and assemblies' ) ;
#164 = CIRCLE ( 'NONE', #25, 13.97000000000000064 ) ;
#165 = LOCAL_TIME ( 9, 40, 17.00000000000000000, #138 ) ;
#166 = CALENDAR_DATE ( 2020, 13, 4 ) ;
#167 = DESIGN_CONTEXT ( 'detailed design', #163, 'design' ) ;
#168 = PRODUCT ( 'Web Model 14684_14694', 'Web Model 14684_14694', '', ( #79 ) ) ;
#169 = ORIENTED_EDGE ( 'NONE', *, *, #120, .F. ) ;
#170 = CALENDAR_DATE ( 2020, 13, 4 ) ;
#171 = CARTESIAN_POINT ( 'NONE',  ( -1.500000000000000000, 0.0000000000000000000, 0.0000000000000000000 ) ) ;
#172 = DIRECTION ( 'NONE',  ( 1.000000000000000000, 0.0000000000000000000, 0.0000000000000000000 ) ) ;
#173 = CC_DESIGN_PERSON_AND_ORGANIZATION_ASSIGNMENT ( #21, #140, ( #168 ) ) ;
#174 = CARTESIAN_POINT ( 'NONE',  ( -1.500000000000000000, 1.710831578408852315E-15, -13.97000000000000064 ) ) ;
#175 = EDGE_CURVE ( 'NONE', #123, #154, #3, .T. ) ;
ENDSEC;
END-ISO-10303-21;
