ISO-10303-21;
HEADER;
FILE_DESCRIPTION (( 'STEP AP203' ),
    '1' );
FILE_NAME ('Web Model 46461_18720.step',
    '2021-07-13T18:57:01',
    ( '' ),
    ( '' ),
    'SwSTEP 2.0',
    'SolidWorks 2018',
    '' );
FILE_SCHEMA (( 'CONFIG_CONTROL_DESIGN' ));
ENDSEC;

DATA;
#1 = CARTESIAN_POINT ( 'NONE',  ( 0.7500000000000000000, 18.99999999999999645, -19.00000000000000000 ) ) ;
#2 = ADVANCED_FACE ( 'NONE', ( #31 ), #179, .F. ) ;
#3 = DIRECTION ( 'NONE',  ( -1.000000000000000000, -0.000000000000000000, -0.000000000000000000 ) ) ;
#4 = DIRECTION ( 'NONE',  ( 0.000000000000000000, 0.000000000000000000, -1.000000000000000000 ) ) ;
#5 = VERTEX_POINT ( 'NONE', #155 ) ;
#6 = FACE_OUTER_BOUND ( 'NONE', #137, .T. ) ;
#7 =( LENGTH_UNIT ( ) NAMED_UNIT ( * ) SI_UNIT ( .MILLI., .METRE. ) );
#8 = DIRECTION ( 'NONE',  ( 0.000000000000000000, -1.000000000000000000, 1.826024711554534160E-16 ) ) ;
#9 =( GEOMETRIC_REPRESENTATION_CONTEXT ( 3 ) GLOBAL_UNCERTAINTY_ASSIGNED_CONTEXT ( ( #127 ) ) GLOBAL_UNIT_ASSIGNED_CONTEXT ( ( #7, #164, #132 ) ) REPRESENTATION_CONTEXT ( 'NONE', 'WORKASPACE' ) );
#10 = DATE_AND_TIME ( #208, #20 ) ;
#11 = VECTOR ( 'NONE', #78, 1000.000000000000000 ) ;
#12 = DATE_TIME_ROLE ( 'creation_date' ) ;
#13 = PERSON_AND_ORGANIZATION ( #104, #174 ) ;
#14 = FACE_OUTER_BOUND ( 'NONE', #134, .T. ) ;
#15 = CC_DESIGN_PERSON_AND_ORGANIZATION_ASSIGNMENT ( #13, #92, ( #237 ) ) ;
#16 = VECTOR ( 'NONE', #106, 1000.000000000000000 ) ;
#17 = DIRECTION ( 'NONE',  ( 0.000000000000000000, -1.826024711554534160E-16, 1.000000000000000000 ) ) ;
#18 = ADVANCED_FACE ( 'NONE', ( #47 ), #87, .F. ) ;
#19 = ORIENTED_EDGE ( 'NONE', *, *, #101, .F. ) ;
#20 = LOCAL_TIME ( 14, 57, 1.000000000000000000, #165 ) ;
#21 = CC_DESIGN_PERSON_AND_ORGANIZATION_ASSIGNMENT ( #150, #49, ( #163 ) ) ;
#22 = CARTESIAN_POINT ( 'NONE',  ( 0.7500000000000000000, 18.99999999999999645, 19.00000000000000000 ) ) ;
#23 = CARTESIAN_POINT ( 'NONE',  ( 0.7500000000000000000, -18.99999999999999645, -19.00000000000000711 ) ) ;
#24 = ORIENTED_EDGE ( 'NONE', *, *, #71, .F. ) ;
#25 = CARTESIAN_POINT ( 'NONE',  ( 0.7500000000000000000, 18.99999999999999645, 19.00000000000000000 ) ) ;
#26 = CARTESIAN_POINT ( 'NONE',  ( -0.7500000000000000000, 18.99999999999999645, 19.00000000000000000 ) ) ;
#27 = ORIENTED_EDGE ( 'NONE', *, *, #221, .F. ) ;
#28 = SECURITY_CLASSIFICATION_LEVEL ( 'unclassified' ) ;
#29 = AXIS2_PLACEMENT_3D ( 'NONE', #207, #45, #133 ) ;
#30 = DATE_TIME_ROLE ( 'classification_date' ) ;
#31 = FACE_OUTER_BOUND ( 'NONE', #222, .T. ) ;
#32 = ORIENTED_EDGE ( 'NONE', *, *, #114, .T. ) ;
#33 = CC_DESIGN_DATE_AND_TIME_ASSIGNMENT ( #10, #12, ( #163 ) ) ;
#34 = APPROVAL_DATE_TIME ( #121, #46 ) ;
#35 = PRODUCT ( 'Web Model 46461_18720', 'Web Model 46461_18720', '', ( #185 ) ) ;
#36 = ORIENTED_EDGE ( 'NONE', *, *, #37, .F. ) ;
#37 = EDGE_CURVE ( 'NONE', #205, #230, #68, .T. ) ;
#38 = DIRECTION ( 'NONE',  ( 0.000000000000000000, -1.826024711554534160E-16, -1.000000000000000000 ) ) ;
#39 = DATE_AND_TIME ( #176, #102 ) ;
#40 = VECTOR ( 'NONE', #79, 1000.000000000000000 ) ;
#41 = DIRECTION ( 'NONE',  ( 0.000000000000000000, -0.000000000000000000, 1.000000000000000000 ) ) ;
#42 = CARTESIAN_POINT ( 'NONE',  ( 0.7500000000000000000, 18.99999999999999645, 19.00000000000000000 ) ) ;
#43 = CARTESIAN_POINT ( 'NONE',  ( 0.7500000000000000000, 0.000000000000000000, 0.000000000000000000 ) ) ;
#44 = CARTESIAN_POINT ( 'NONE',  ( 0.7500000000000000000, -18.99999999999999645, 19.00000000000000711 ) ) ;
#45 = DIRECTION ( 'NONE',  ( 0.000000000000000000, 0.000000000000000000, 1.000000000000000000 ) ) ;
#46 = APPROVAL ( #184, 'UNSPECIFIED' ) ;
#47 = FACE_OUTER_BOUND ( 'NONE', #74, .T. ) ;
#48 = APPROVAL_ROLE ( '' ) ;
#49 = PERSON_AND_ORGANIZATION_ROLE ( 'creator' ) ;
#50 = ORIENTED_EDGE ( 'NONE', *, *, #221, .T. ) ;
#51 = ADVANCED_BREP_SHAPE_REPRESENTATION ( 'Web Model 46461_18720', ( #227, #29 ), #9 ) ;
#52 = EDGE_CURVE ( 'NONE', #5, #128, #171, .T. ) ;
#53 = CALENDAR_DATE ( 2021, 13, 7 ) ;
#54 = FACE_OUTER_BOUND ( 'NONE', #83, .T. ) ;
#55 = EDGE_LOOP ( 'NONE', ( #77, #111, #172, #154 ) ) ;
#56 = ORIENTED_EDGE ( 'NONE', *, *, #231, .F. ) ;
#57 = CC_DESIGN_APPROVAL ( #46, ( #69 ) ) ;
#58 = ORIENTED_EDGE ( 'NONE', *, *, #93, .F. ) ;
#59 = CARTESIAN_POINT ( 'NONE',  ( -0.7500000000000000000, -18.99999999999999645, 19.00000000000000711 ) ) ;
#60 = PLANE ( 'NONE',  #144 ) ;
#61 = CARTESIAN_POINT ( 'NONE',  ( 0.7500000000000000000, -18.99999999999999645, 19.00000000000000711 ) ) ;
#62 = PERSON_AND_ORGANIZATION ( #104, #174 ) ;
#63 = CARTESIAN_POINT ( 'NONE',  ( 0.7500000000000000000, 18.99999999999999645, 19.00000000000000000 ) ) ;
#64 = AXIS2_PLACEMENT_3D ( 'NONE', #61, #220, #41 ) ;
#65 = APPROVAL_STATUS ( 'not_yet_approved' ) ;
#66 = COORDINATED_UNIVERSAL_TIME_OFFSET ( 5, 0, .BEHIND. ) ;
#67 = APPROVAL_PERSON_ORGANIZATION ( #107, #46, #224 ) ;
#68 = LINE ( 'NONE', #216, #147 ) ;
#69 = PRODUCT_DEFINITION_FORMATION_WITH_SPECIFIED_SOURCE ( 'ANY', '', #35, .NOT_KNOWN. ) ;
#70 = ORIENTED_EDGE ( 'NONE', *, *, #71, .T. ) ;
#71 = EDGE_CURVE ( 'NONE', #230, #128, #98, .T. ) ;
#72 = DESIGN_CONTEXT ( 'detailed design', #96, 'design' ) ;
#73 = LOCAL_TIME ( 14, 57, 1.000000000000000000, #228 ) ;
#74 = EDGE_LOOP ( 'NONE', ( #70, #161, #19, #187 ) ) ;
#75 = CARTESIAN_POINT ( 'NONE',  ( -0.7500000000000000000, 18.99999999999999645, -19.00000000000000000 ) ) ;
#76 = AXIS2_PLACEMENT_3D ( 'NONE', #119, #17, #153 ) ;
#77 = ORIENTED_EDGE ( 'NONE', *, *, #93, .T. ) ;
#78 = DIRECTION ( 'NONE',  ( -0.000000000000000000, -0.000000000000000000, 1.000000000000000000 ) ) ;
#79 = DIRECTION ( 'NONE',  ( 0.000000000000000000, -1.000000000000000000, 1.826024711554534160E-16 ) ) ;
#80 = VERTEX_POINT ( 'NONE', #63 ) ;
#81 = LINE ( 'NONE', #109, #40 ) ;
#82 = ORIENTED_EDGE ( 'NONE', *, *, #101, .T. ) ;
#83 = EDGE_LOOP ( 'NONE', ( #97, #56, #27, #236 ) ) ;
#84 = AXIS2_PLACEMENT_3D ( 'NONE', #43, #159, #201 ) ;
#85 = VECTOR ( 'NONE', #181, 1000.000000000000000 ) ;
#86 = VERTEX_POINT ( 'NONE', #44 ) ;
#87 = PLANE ( 'NONE',  #76 ) ;
#88 = DIRECTION ( 'NONE',  ( 0.000000000000000000, 1.000000000000000000, -1.826024711554534160E-16 ) ) ;
#89 = DIRECTION ( 'NONE',  ( -1.000000000000000000, -0.000000000000000000, -0.000000000000000000 ) ) ;
#90 = PLANE ( 'NONE',  #64 ) ;
#91 = LINE ( 'NONE', #26, #11 ) ;
#92 = PERSON_AND_ORGANIZATION_ROLE ( 'classification_officer' ) ;
#93 = EDGE_CURVE ( 'NONE', #128, #213, #91, .T. ) ;
#94 = CC_DESIGN_APPROVAL ( #212, ( #237 ) ) ;
#95 = VECTOR ( 'NONE', #8, 1000.000000000000000 ) ;
#96 = APPLICATION_CONTEXT ( 'configuration controlled 3d designs of mechanical parts and assemblies' ) ;
#97 = ORIENTED_EDGE ( 'NONE', *, *, #234, .T. ) ;
#98 = LINE ( 'NONE', #126, #16 ) ;
#99 = APPROVAL_PERSON_ORGANIZATION ( #62, #188, #130 ) ;
#100 = VECTOR ( 'NONE', #3, 1000.000000000000000 ) ;
#101 = EDGE_CURVE ( 'NONE', #189, #5, #209, .T. ) ;
#102 = LOCAL_TIME ( 14, 57, 1.000000000000000000, #232 ) ;
#103 = VECTOR ( 'NONE', #89, 1000.000000000000000 ) ;
#104 = PERSON ( 'UNSPECIFIED', 'UNSPECIFIED', 'UNSPECIFIED', ('UNSPECIFIED'), ('UNSPECIFIED'), ('UNSPECIFIED') ) ;
#105 = ORIENTED_EDGE ( 'NONE', *, *, #234, .F. ) ;
#106 = DIRECTION ( 'NONE',  ( -0.000000000000000000, 1.000000000000000000, 1.826024711554534160E-16 ) ) ;
#107 = PERSON_AND_ORGANIZATION ( #104, #174 ) ;
#108 = VECTOR ( 'NONE', #157, 1000.000000000000000 ) ;
#109 = CARTESIAN_POINT ( 'NONE',  ( 0.7500000000000000000, 18.99999999999999645, 19.00000000000000000 ) ) ;
#110 = CARTESIAN_POINT ( 'NONE',  ( 0.7500000000000000000, 18.99999999999999645, 19.00000000000000000 ) ) ;
#111 = ORIENTED_EDGE ( 'NONE', *, *, #166, .F. ) ;
#112 = CALENDAR_DATE ( 2021, 13, 7 ) ;
#113 = APPLICATION_CONTEXT ( 'configuration controlled 3d designs of mechanical parts and assemblies' ) ;
#114 = EDGE_CURVE ( 'NONE', #5, #80, #196, .T. ) ;
#115 = CARTESIAN_POINT ( 'NONE',  ( -0.7500000000000000000, -18.99999999999999645, -19.00000000000000711 ) ) ;
#116 = APPLICATION_PROTOCOL_DEFINITION ( 'international standard', 'config_control_design', 1994, #96 ) ;
#117 = ORIENTED_EDGE ( 'NONE', *, *, #120, .T. ) ;
#118 = LOCAL_TIME ( 14, 57, 1.000000000000000000, #200 ) ;
#119 = CARTESIAN_POINT ( 'NONE',  ( 0.7500000000000000000, 18.99999999999999645, -19.00000000000000000 ) ) ;
#120 = EDGE_CURVE ( 'NONE', #86, #189, #138, .T. ) ;
#121 = DATE_AND_TIME ( #53, #143 ) ;
#122 = CARTESIAN_POINT ( 'NONE',  ( 0.7500000000000000000, -18.99999999999999645, 19.00000000000000711 ) ) ;
#123 = ORIENTED_EDGE ( 'NONE', *, *, #120, .F. ) ;
#124 = CARTESIAN_POINT ( 'NONE',  ( -0.7500000000000000000, 0.000000000000000000, 0.000000000000000000 ) ) ;
#125 = ADVANCED_FACE ( 'NONE', ( #14 ), #90, .F. ) ;
#126 = CARTESIAN_POINT ( 'NONE',  ( -0.7500000000000000000, 18.99999999999999645, -19.00000000000000000 ) ) ;
#127 = UNCERTAINTY_MEASURE_WITH_UNIT (LENGTH_MEASURE( 1.000000000000000082E-05 ), #7, 'distance_accuracy_value', 'NONE');
#128 = VERTEX_POINT ( 'NONE', #75 ) ;
#129 = PERSON_AND_ORGANIZATION ( #104, #174 ) ;
#130 = APPROVAL_ROLE ( '' ) ;
#131 = AXIS2_PLACEMENT_3D ( 'NONE', #42, #38, #88 ) ;
#132 =( NAMED_UNIT ( * ) SI_UNIT ( $, .STERADIAN. ) SOLID_ANGLE_UNIT ( ) );
#133 = DIRECTION ( 'NONE',  ( 1.000000000000000000, 0.000000000000000000, 0.000000000000000000 ) ) ;
#134 = EDGE_LOOP ( 'NONE', ( #229, #149, #123, #210 ) ) ;
#135 = EDGE_CURVE ( 'NONE', #189, #230, #178, .T. ) ;
#136 = LINE ( 'NONE', #140, #103 ) ;
#137 = EDGE_LOOP ( 'NONE', ( #50, #117, #82, #32 ) ) ;
#138 = LINE ( 'NONE', #122, #223 ) ;
#139 = DIRECTION ( 'NONE',  ( -0.000000000000000000, 1.000000000000000000, 1.826024711554534160E-16 ) ) ;
#140 = CARTESIAN_POINT ( 'NONE',  ( 0.7500000000000000000, -18.99999999999999645, 19.00000000000000711 ) ) ;
#141 = PLANE ( 'NONE',  #84 ) ;
#142 = DIRECTION ( 'NONE',  ( 0.000000000000000000, -0.000000000000000000, -1.000000000000000000 ) ) ;
#143 = LOCAL_TIME ( 14, 57, 1.000000000000000000, #66 ) ;
#144 = AXIS2_PLACEMENT_3D ( 'NONE', #110, #177, #142 ) ;
#145 = PERSON_AND_ORGANIZATION_ROLE ( 'creator' ) ;
#146 = PERSON_AND_ORGANIZATION_ROLE ( 'design_owner' ) ;
#147 = VECTOR ( 'NONE', #202, 1000.000000000000000 ) ;
#148 = CC_DESIGN_PERSON_AND_ORGANIZATION_ASSIGNMENT ( #129, #146, ( #35 ) ) ;
#149 = ORIENTED_EDGE ( 'NONE', *, *, #135, .F. ) ;
#150 = PERSON_AND_ORGANIZATION ( #104, #174 ) ;
#151 = DATE_AND_TIME ( #112, #118 ) ;
#152 = FACE_OUTER_BOUND ( 'NONE', #55, .T. ) ;
#153 = DIRECTION ( 'NONE',  ( 0.000000000000000000, -1.000000000000000000, -1.826024711554534160E-16 ) ) ;
#154 = ORIENTED_EDGE ( 'NONE', *, *, #52, .T. ) ;
#155 = CARTESIAN_POINT ( 'NONE',  ( 0.7500000000000000000, 18.99999999999999645, -19.00000000000000000 ) ) ;
#156 = PLANE ( 'NONE',  #131 ) ;
#157 = DIRECTION ( 'NONE',  ( -1.000000000000000000, -0.000000000000000000, -0.000000000000000000 ) ) ;
#158 = PERSON_AND_ORGANIZATION ( #104, #174 ) ;
#159 = DIRECTION ( 'NONE',  ( 1.000000000000000000, 0.000000000000000000, 0.000000000000000000 ) ) ;
#160 = DATE_AND_TIME ( #167, #73 ) ;
#161 = ORIENTED_EDGE ( 'NONE', *, *, #52, .F. ) ;
#162 = APPLICATION_PROTOCOL_DEFINITION ( 'international standard', 'config_control_design', 1994, #113 ) ;
#163 = PRODUCT_DEFINITION ( 'UNKNOWN', '', #69, #72 ) ;
#164 =( NAMED_UNIT ( * ) PLANE_ANGLE_UNIT ( ) SI_UNIT ( $, .RADIAN. ) );
#165 = COORDINATED_UNIVERSAL_TIME_OFFSET ( 5, 0, .BEHIND. ) ;
#166 = EDGE_CURVE ( 'NONE', #80, #213, #217, .T. ) ;
#167 = CALENDAR_DATE ( 2021, 13, 7 ) ;
#168 = APPROVAL_PERSON_ORGANIZATION ( #194, #212, #48 ) ;
#169 = CC_DESIGN_SECURITY_CLASSIFICATION ( #237, ( #69 ) ) ;
#170 = CC_DESIGN_PERSON_AND_ORGANIZATION_ASSIGNMENT ( #158, #145, ( #69 ) ) ;
#171 = LINE ( 'NONE', #199, #85 ) ;
#172 = ORIENTED_EDGE ( 'NONE', *, *, #114, .F. ) ;
#173 = ADVANCED_FACE ( 'NONE', ( #152 ), #60, .F. ) ;
#174 = ORGANIZATION ( 'UNSPECIFIED', 'UNSPECIFIED', '' ) ;
#175 = ADVANCED_FACE ( 'NONE', ( #6 ), #141, .T. ) ;
#176 = CALENDAR_DATE ( 2021, 13, 7 ) ;
#177 = DIRECTION ( 'NONE',  ( 0.000000000000000000, -1.000000000000000000, 0.000000000000000000 ) ) ;
#178 = LINE ( 'NONE', #197, #100 ) ;
#179 = PLANE ( 'NONE',  #195 ) ;
#180 = CARTESIAN_POINT ( 'NONE',  ( -0.7500000000000000000, 18.99999999999999645, 19.00000000000000000 ) ) ;
#181 = DIRECTION ( 'NONE',  ( -1.000000000000000000, -0.000000000000000000, -0.000000000000000000 ) ) ;
#182 = CLOSED_SHELL ( 'NONE', ( #198, #125, #18, #173, #175, #2 ) ) ;
#183 = PERSON_AND_ORGANIZATION_ROLE ( 'design_supplier' ) ;
#184 = APPROVAL_STATUS ( 'not_yet_approved' ) ;
#185 = MECHANICAL_CONTEXT ( 'NONE', #113, 'mechanical' ) ;
#186 = PERSON_AND_ORGANIZATION ( #104, #174 ) ;
#187 = ORIENTED_EDGE ( 'NONE', *, *, #135, .T. ) ;
#188 = APPROVAL ( #65, 'UNSPECIFIED' ) ;
#189 = VERTEX_POINT ( 'NONE', #23 ) ;
#190 = SHAPE_DEFINITION_REPRESENTATION ( #193, #51 ) ;
#191 = CC_DESIGN_APPROVAL ( #188, ( #163 ) ) ;
#192 = VECTOR ( 'NONE', #139, 1000.000000000000000 ) ;
#193 = PRODUCT_DEFINITION_SHAPE ( 'NONE', 'NONE',  #163 ) ;
#194 = PERSON_AND_ORGANIZATION ( #104, #174 ) ;
#195 = AXIS2_PLACEMENT_3D ( 'NONE', #124, #215, #204 ) ;
#196 = LINE ( 'NONE', #25, #233 ) ;
#197 = CARTESIAN_POINT ( 'NONE',  ( 0.7500000000000000000, -18.99999999999999645, -19.00000000000000711 ) ) ;
#198 = ADVANCED_FACE ( 'NONE', ( #54 ), #156, .F. ) ;
#199 = CARTESIAN_POINT ( 'NONE',  ( 0.7500000000000000000, 18.99999999999999645, -19.00000000000000000 ) ) ;
#200 = COORDINATED_UNIVERSAL_TIME_OFFSET ( 5, 0, .BEHIND. ) ;
#201 = DIRECTION ( 'NONE',  ( 0.000000000000000000, 0.000000000000000000, -1.000000000000000000 ) ) ;
#202 = DIRECTION ( 'NONE',  ( 0.000000000000000000, 0.000000000000000000, -1.000000000000000000 ) ) ;
#203 = CC_DESIGN_DATE_AND_TIME_ASSIGNMENT ( #39, #30, ( #237 ) ) ;
#204 = DIRECTION ( 'NONE',  ( 0.000000000000000000, 0.000000000000000000, -1.000000000000000000 ) ) ;
#205 = VERTEX_POINT ( 'NONE', #59 ) ;
#206 = APPROVAL_STATUS ( 'not_yet_approved' ) ;
#207 = CARTESIAN_POINT ( 'NONE',  ( 0.000000000000000000, 0.000000000000000000, 0.000000000000000000 ) ) ;
#208 = CALENDAR_DATE ( 2021, 13, 7 ) ;
#209 = LINE ( 'NONE', #1, #192 ) ;
#210 = ORIENTED_EDGE ( 'NONE', *, *, #231, .T. ) ;
#211 = PRODUCT_RELATED_PRODUCT_CATEGORY ( 'detail', '', ( #35 ) ) ;
#212 = APPROVAL ( #206, 'UNSPECIFIED' ) ;
#213 = VERTEX_POINT ( 'NONE', #180 ) ;
#214 = APPROVAL_DATE_TIME ( #151, #188 ) ;
#215 = DIRECTION ( 'NONE',  ( 1.000000000000000000, 0.000000000000000000, 0.000000000000000000 ) ) ;
#216 = CARTESIAN_POINT ( 'NONE',  ( -0.7500000000000000000, -18.99999999999999645, 19.00000000000000711 ) ) ;
#217 = LINE ( 'NONE', #22, #108 ) ;
#218 = DIRECTION ( 'NONE',  ( -0.000000000000000000, -0.000000000000000000, 1.000000000000000000 ) ) ;
#219 = CARTESIAN_POINT ( 'NONE',  ( -0.7500000000000000000, 18.99999999999999645, 19.00000000000000000 ) ) ;
#220 = DIRECTION ( 'NONE',  ( -0.000000000000000000, 1.000000000000000000, 0.000000000000000000 ) ) ;
#221 = EDGE_CURVE ( 'NONE', #80, #86, #81, .T. ) ;
#222 = EDGE_LOOP ( 'NONE', ( #105, #58, #24, #36 ) ) ;
#223 = VECTOR ( 'NONE', #4, 1000.000000000000000 ) ;
#224 = APPROVAL_ROLE ( '' ) ;
#225 = CC_DESIGN_PERSON_AND_ORGANIZATION_ASSIGNMENT ( #186, #183, ( #69 ) ) ;
#226 = LINE ( 'NONE', #219, #95 ) ;
#227 = MANIFOLD_SOLID_BREP ( 'Boss-Extrude1', #182 ) ;
#228 = COORDINATED_UNIVERSAL_TIME_OFFSET ( 5, 0, .BEHIND. ) ;
#229 = ORIENTED_EDGE ( 'NONE', *, *, #37, .T. ) ;
#230 = VERTEX_POINT ( 'NONE', #115 ) ;
#231 = EDGE_CURVE ( 'NONE', #86, #205, #136, .T. ) ;
#232 = COORDINATED_UNIVERSAL_TIME_OFFSET ( 5, 0, .BEHIND. ) ;
#233 = VECTOR ( 'NONE', #218, 1000.000000000000000 ) ;
#234 = EDGE_CURVE ( 'NONE', #213, #205, #226, .T. ) ;
#235 = APPROVAL_DATE_TIME ( #160, #212 ) ;
#236 = ORIENTED_EDGE ( 'NONE', *, *, #166, .T. ) ;
#237 = SECURITY_CLASSIFICATION ( '', '', #28 ) ;
ENDSEC;
END-ISO-10303-21;
