ISO-10303-21;
HEADER;
FILE_DESCRIPTION (( 'STEP AP203' ),
    '1' );
FILE_NAME ('TTN206862-E0W.STEP',
    '2020-08-18T15:15:43',
    ( '' ),
    ( '' ),
    'SwSTEP 2.0',
    'SolidWorks 2018',
    '' );
FILE_SCHEMA (( 'CONFIG_CONTROL_DESIGN' ));
ENDSEC;

DATA;
#1 = FACE_OUTER_BOUND ( 'NONE', #96, .T. ) ;
#2 = PRODUCT_DEFINITION ( 'UNKNOWN', '', #118, #171 ) ;
#3 = CALENDAR_DATE ( 2020, 18, 8 ) ;
#4 = CARTESIAN_POINT ( 'NONE',  ( 1.555301434917138433E-15, -12.69999999999999929, -0.8000000000000034861 ) ) ;
#5 = CIRCLE ( 'NONE', #301, 12.50013371087602110 ) ;
#6 = AXIS2_PLACEMENT_3D ( 'NONE', #211, #218, #119 ) ;
#7 = APPLICATION_CONTEXT ( 'configuration controlled 3d designs of mechanical parts and assemblies' ) ;
#8 = APPROVAL_DATE_TIME ( #17, #212 ) ;
#9 = CARTESIAN_POINT ( 'NONE',  ( 0.0000000000000000000, -4.554369515876137495E-16, 1.087619103611714433 ) ) ;
#10 = PERSON_AND_ORGANIZATION_ROLE ( 'classification_officer' ) ;
#11 = DIRECTION ( 'NONE',  ( -0.0000000000000000000, 3.061515884556191637E-16, -1.000000000000000000 ) ) ;
#12 = MECHANICAL_CONTEXT ( 'NONE', #7, 'mechanical' ) ;
#13 = DIRECTION ( 'NONE',  ( 8.853404992781523741E-17, -0.7229353801394495793, -0.6909156505266249582 ) ) ;
#14 = EDGE_CURVE ( 'NONE', #278, #46, #5, .T. ) ;
#15 = DIRECTION ( 'NONE',  ( 0.0000000000000000000, -3.061515884555943639E-16, 1.000000000000000000 ) ) ;
#16 = CC_DESIGN_PERSON_AND_ORGANIZATION_ASSIGNMENT ( #269, #178, ( #118 ) ) ;
#17 = DATE_AND_TIME ( #261, #70 ) ;
#18 = CIRCLE ( 'NONE', #196, 12.69999999999999929 ) ;
#19 = CC_DESIGN_DATE_AND_TIME_ASSIGNMENT ( #255, #268, ( #2 ) ) ;
#20 = COORDINATED_UNIVERSAL_TIME_OFFSET ( 5, 0, .BEHIND. ) ;
#21 = CARTESIAN_POINT ( 'NONE',  ( 0.0000000000000000000, -3.459904823581439233E-14, 281.5319999999999823 ) ) ;
#22 = DIRECTION ( 'NONE',  ( 1.000000000000000000, 0.0000000000000000000, -0.0000000000000000000 ) ) ;
#23 = PERSON_AND_ORGANIZATION ( #184, #103 ) ;
#24 = EDGE_CURVE ( 'NONE', #216, #207, #47, .T. ) ;
#25 = FACE_OUTER_BOUND ( 'NONE', #234, .T. ) ;
#26 = EDGE_LOOP ( 'NONE', ( #188, #71, #164, #121 ) ) ;
#27 = DIRECTION ( 'NONE',  ( 0.0000000000000000000, 0.0000000000000000000, 1.000000000000000000 ) ) ;
#28 = EDGE_CURVE ( 'NONE', #200, #207, #55, .T. ) ;
#29 = ORIENTED_EDGE ( 'NONE', *, *, #143, .T. ) ;
#30 = CARTESIAN_POINT ( 'NONE',  ( 0.0000000000000000000, 12.50013371087548997, 1.278633059992930532 ) ) ;
#31 = VECTOR ( 'NONE', #273, 1000.000000000000000 ) ;
#32 = CYLINDRICAL_SURFACE ( 'NONE', #209, 12.69999999999999929 ) ;
#33 = DATE_AND_TIME ( #163, #137 ) ;
#34 = CARTESIAN_POINT ( 'NONE',  ( 0.0000000000000000000, 5.120096522290428163E-14, 1.278633059992928533 ) ) ;
#35 = EDGE_LOOP ( 'NONE', ( #136, #300, #264, #116 ) ) ;
#36 = VECTOR ( 'NONE', #284, 1000.000000000000114 ) ;
#37 = CC_DESIGN_APPROVAL ( #290, ( #185 ) ) ;
#38 = ORIENTED_EDGE ( 'NONE', *, *, #28, .T. ) ;
#39 = CARTESIAN_POINT ( 'NONE',  ( 0.0000000000000000000, 1.836909530733571311E-16, -1.000000000000001998 ) ) ;
#40 = VERTEX_POINT ( 'NONE', #181 ) ;
#41 =( GEOMETRIC_REPRESENTATION_CONTEXT ( 3 ) GLOBAL_UNCERTAINTY_ASSIGNED_CONTEXT ( ( #258 ) ) GLOBAL_UNIT_ASSIGNED_CONTEXT ( ( #154, #100, #53 ) ) REPRESENTATION_CONTEXT ( 'NONE', 'WORKASPACE' ) );
#42 = DIRECTION ( 'NONE',  ( 0.0000000000000000000, -3.061515884555943639E-16, 1.000000000000000000 ) ) ;
#43 = EDGE_CURVE ( 'NONE', #147, #200, #252, .T. ) ;
#44 = CARTESIAN_POINT ( 'NONE',  ( 0.0000000000000000000, 12.69999999999999929, -0.7999999999999957145 ) ) ;
#45 = AXIS2_PLACEMENT_3D ( 'NONE', #52, #244, #175 ) ;
#46 = VERTEX_POINT ( 'NONE', #159 ) ;
#47 = LINE ( 'NONE', #298, #236 ) ;
#48 = EDGE_LOOP ( 'NONE', ( #254, #107, #187, #135 ) ) ;
#49 = CARTESIAN_POINT ( 'NONE',  ( 0.0000000000000000000, -12.49999999999999645, -1.000000000000005773 ) ) ;
#50 = CARTESIAN_POINT ( 'NONE',  ( 0.0000000000000000000, 12.69999999999999929, 1.087619103611718430 ) ) ;
#51 = EDGE_LOOP ( 'NONE', ( #99, #180 ) ) ;
#52 = CARTESIAN_POINT ( 'NONE',  ( 0.0000000000000000000, 1.224606353822375040E-16, -0.7999999999999996003 ) ) ;
#53 =( NAMED_UNIT ( * ) SI_UNIT ( $, .STERADIAN. ) SOLID_ANGLE_UNIT ( ) );
#54 = CARTESIAN_POINT ( 'NONE',  ( 0.0000000000000000000, 0.0000000000000000000, 0.0000000000000000000 ) ) ;
#55 = CIRCLE ( 'NONE', #233, 12.69999999999999929 ) ;
#56 = CIRCLE ( 'NONE', #194, 12.69999999999999929 ) ;
#57 = CC_DESIGN_SECURITY_CLASSIFICATION ( #185, ( #118 ) ) ;
#58 = CIRCLE ( 'NONE', #245, 280.5319999999999823 ) ;
#59 = CARTESIAN_POINT ( 'NONE',  ( 0.0000000000000000000, 1.836909530733571064E-16, -1.000000000000001998 ) ) ;
#60 = EDGE_CURVE ( 'NONE', #131, #200, #153, .T. ) ;
#61 = LOCAL_TIME ( 11, 15, 43.00000000000000000, #122 ) ;
#62 = CC_DESIGN_APPROVAL ( #148, ( #118 ) ) ;
#63 = CIRCLE ( 'NONE', #256, 12.49999999999999645 ) ;
#64 = ORIENTED_EDGE ( 'NONE', *, *, #43, .F. ) ;
#65 = APPROVAL_DATE_TIME ( #134, #148 ) ;
#66 = CARTESIAN_POINT ( 'NONE',  ( 0.0000000000000000000, -4.554369515876158203E-16, 1.087619103611714433 ) ) ;
#67 = EDGE_CURVE ( 'NONE', #46, #131, #223, .T. ) ;
#68 = CARTESIAN_POINT ( 'NONE',  ( 0.0000000000000000000, 12.69999999999999929, 1.087619103611718430 ) ) ;
#69 = AXIS2_PLACEMENT_3D ( 'NONE', #292, #105, #246 ) ;
#70 = LOCAL_TIME ( 11, 15, 43.00000000000000000, #106 ) ;
#71 = ORIENTED_EDGE ( 'NONE', *, *, #67, .T. ) ;
#72 = DIRECTION ( 'NONE',  ( 0.0000000000000000000, -3.061515884556191637E-16, 1.000000000000000000 ) ) ;
#73 = LOCAL_TIME ( 11, 15, 43.00000000000000000, #20 ) ;
#74 = DIRECTION ( 'NONE',  ( 0.0000000000000000000, -1.000000000000000000, -3.073328992872296367E-16 ) ) ;
#75 = EDGE_CURVE ( 'NONE', #46, #40, #161, .T. ) ;
#76 = ADVANCED_FACE ( 'NONE', ( #179 ), #111, .T. ) ;
#77 = APPROVAL_STATUS ( 'not_yet_approved' ) ;
#78 = CARTESIAN_POINT ( 'NONE',  ( 0.0000000000000000000, 1.836909530733565148E-16, -1.000000000000000000 ) ) ;
#79 = CARTESIAN_POINT ( 'NONE',  ( 0.0000000000000000000, -12.49999999999999645, -1.000000000000005773 ) ) ;
#80 = CIRCLE ( 'NONE', #45, 12.69999999999999929 ) ;
#81 = MANIFOLD_SOLID_BREP ( 'TTN206874-1-solid1', #259 ) ;
#82 = ORIENTED_EDGE ( 'NONE', *, *, #149, .T. ) ;
#83 = PERSON_AND_ORGANIZATION ( #184, #103 ) ;
#84 = LOCAL_TIME ( 11, 15, 43.00000000000000000, #145 ) ;
#85 = AXIS2_PLACEMENT_3D ( 'NONE', #39, #238, #283 ) ;
#86 = FACE_OUTER_BOUND ( 'NONE', #35, .T. ) ;
#87 = DIRECTION ( 'NONE',  ( -1.224646799147353207E-16, 1.000000000000000000, 0.0000000000000000000 ) ) ;
#88 = ADVANCED_BREP_SHAPE_REPRESENTATION ( 'TTN206862-E0W', ( #81, #162 ), #41 ) ;
#89 = DIRECTION ( 'NONE',  ( 0.0000000000000000000, -1.000000000000000000, -3.122502256758253756E-16 ) ) ;
#90 = EDGE_CURVE ( 'NONE', #216, #147, #63, .T. ) ;
#91 = DIRECTION ( 'NONE',  ( 0.0000000000000000000, 1.000000000000000000, 3.957562861367532226E-16 ) ) ;
#92 = VECTOR ( 'NONE', #13, 1000.000000000000114 ) ;
#93 = AXIS2_PLACEMENT_3D ( 'NONE', #293, #197, #251 ) ;
#94 = PERSON_AND_ORGANIZATION ( #184, #103 ) ;
#95 = CONICAL_SURFACE ( 'NONE', #93, 12.49999999999999645, 0.7853981633974479459 ) ;
#96 = EDGE_LOOP ( 'NONE', ( #295, #193, #29 ) ) ;
#97 = CC_DESIGN_APPROVAL ( #212, ( #2 ) ) ;
#98 = APPLICATION_PROTOCOL_DEFINITION ( 'international standard', 'config_control_design', 1994, #225 ) ;
#99 = ORIENTED_EDGE ( 'NONE', *, *, #110, .T. ) ;
#100 =( NAMED_UNIT ( * ) PLANE_ANGLE_UNIT ( ) SI_UNIT ( $, .RADIAN. ) );
#101 = APPROVAL_STATUS ( 'not_yet_approved' ) ;
#102 = APPROVAL_ROLE ( '' ) ;
#103 = ORGANIZATION ( 'UNSPECIFIED', 'UNSPECIFIED', '' ) ;
#104 = PRODUCT_DEFINITION_SHAPE ( 'NONE', 'NONE',  #2 ) ;
#105 = DIRECTION ( 'NONE',  ( -0.0000000000000000000, 3.061515884555943146E-16, -1.000000000000000000 ) ) ;
#106 = COORDINATED_UNIVERSAL_TIME_OFFSET ( 5, 0, .BEHIND. ) ;
#107 = ORIENTED_EDGE ( 'NONE', *, *, #110, .F. ) ;
#108 = DIRECTION ( 'NONE',  ( 8.659560562354929160E-17, 0.7071067811865470176, 0.7071067811865479058 ) ) ;
#109 = PRODUCT_RELATED_PRODUCT_CATEGORY ( 'detail', '', ( #205 ) ) ;
#110 = EDGE_CURVE ( 'NONE', #147, #216, #126, .T. ) ;
#111 = PLANE ( 'NONE',  #85 ) ;
#112 = DIRECTION ( 'NONE',  ( 1.000000000000000000, 1.224646799147353207E-16, 3.749275628560213616E-32 ) ) ;
#113 = AXIS2_PLACEMENT_3D ( 'NONE', #21, #22, #91 ) ;
#114 = EDGE_LOOP ( 'NONE', ( #291, #281, #38, #250 ) ) ;
#115 = CYLINDRICAL_SURFACE ( 'NONE', #69, 12.69999999999999929 ) ;
#116 = ORIENTED_EDGE ( 'NONE', *, *, #149, .F. ) ;
#117 = VECTOR ( 'NONE', #130, 1000.000000000000114 ) ;
#118 = PRODUCT_DEFINITION_FORMATION_WITH_SPECIFIED_SOURCE ( 'ANY', '', #205, .NOT_KNOWN. ) ;
#119 = DIRECTION ( 'NONE',  ( 0.0000000000000000000, 1.000000000000000000, 3.073328992872296367E-16 ) ) ;
#120 = APPROVAL_STATUS ( 'not_yet_approved' ) ;
#121 = ORIENTED_EDGE ( 'NONE', *, *, #168, .F. ) ;
#122 = COORDINATED_UNIVERSAL_TIME_OFFSET ( 5, 0, .BEHIND. ) ;
#123 = EDGE_CURVE ( 'NONE', #230, #207, #285, .T. ) ;
#124 = ORIENTED_EDGE ( 'NONE', *, *, #28, .F. ) ;
#125 = CC_DESIGN_DATE_AND_TIME_ASSIGNMENT ( #203, #249, ( #185 ) ) ;
#126 = CIRCLE ( 'NONE', #132, 12.49999999999999645 ) ;
#127 = DIRECTION ( 'NONE',  ( 0.0000000000000000000, 1.000000000000000000, 3.073328992872296367E-16 ) ) ;
#128 = DIRECTION ( 'NONE',  ( 0.0000000000000000000, -1.000000000000000000, -3.122468856114564555E-16 ) ) ;
#129 = SPHERICAL_SURFACE ( 'NONE', #113, 280.5319999999999823 ) ;
#130 = DIRECTION ( 'NONE',  ( 0.0000000000000000000, -0.7071067811865474617, 0.7071067811865474617 ) ) ;
#131 = VERTEX_POINT ( 'NONE', #265 ) ;
#132 = AXIS2_PLACEMENT_3D ( 'NONE', #59, #235, #288 ) ;
#133 = EDGE_CURVE ( 'NONE', #46, #278, #253, .T. ) ;
#134 = DATE_AND_TIME ( #3, #61 ) ;
#135 = ORIENTED_EDGE ( 'NONE', *, *, #224, .F. ) ;
#136 = ORIENTED_EDGE ( 'NONE', *, *, #67, .F. ) ;
#137 = LOCAL_TIME ( 11, 15, 43.00000000000000000, #229 ) ;
#138 = FACE_OUTER_BOUND ( 'NONE', #48, .T. ) ;
#139 = CARTESIAN_POINT ( 'NONE',  ( 0.0000000000000000000, -3.459904823581439233E-14, 281.5319999999999823 ) ) ;
#140 = ORIENTED_EDGE ( 'NONE', *, *, #14, .T. ) ;
#141 = PERSON_AND_ORGANIZATION ( #184, #103 ) ;
#142 = ORIENTED_EDGE ( 'NONE', *, *, #60, .F. ) ;
#143 = EDGE_CURVE ( 'NONE', #278, #40, #58, .T. ) ;
#144 = APPROVAL_PERSON_ORGANIZATION ( #23, #212, #102 ) ;
#145 = COORDINATED_UNIVERSAL_TIME_OFFSET ( 5, 0, .BEHIND. ) ;
#146 = CONICAL_SURFACE ( 'NONE', #6, 12.69999999999999929, 0.8080414662313800678 ) ;
#147 = VERTEX_POINT ( 'NONE', #49 ) ;
#148 = APPROVAL ( #120, 'UNSPECIFIED' ) ;
#149 = EDGE_CURVE ( 'NONE', #131, #230, #56, .T. ) ;
#150 = ADVANCED_FACE ( 'NONE', ( #1 ), #129, .F. ) ;
#151 = PERSON_AND_ORGANIZATION_ROLE ( 'design_owner' ) ;
#152 = ADVANCED_FACE ( 'NONE', ( #215 ), #210, .T. ) ;
#153 = LINE ( 'NONE', #222, #31 ) ;
#154 =( LENGTH_UNIT ( ) NAMED_UNIT ( * ) SI_UNIT ( .MILLI., .METRE. ) );
#155 = CARTESIAN_POINT ( 'NONE',  ( 0.0000000000000000000, 1.224606353822375040E-16, -0.7999999999999996003 ) ) ;
#156 = DIRECTION ( 'NONE',  ( 1.000000000000000000, 0.0000000000000000000, -0.0000000000000000000 ) ) ;
#157 = SHAPE_DEFINITION_REPRESENTATION ( #104, #88 ) ;
#158 = SPHERICAL_SURFACE ( 'NONE', #241, 280.5319999999999823 ) ;
#159 = CARTESIAN_POINT ( 'NONE',  ( 1.530824873793752991E-15, -12.50013371087538694, 1.278633059992926535 ) ) ;
#160 = ORIENTED_EDGE ( 'NONE', *, *, #143, .F. ) ;
#161 = CIRCLE ( 'NONE', #204, 280.5319999999999823 ) ;
#162 = AXIS2_PLACEMENT_3D ( 'NONE', #54, #275, #297 ) ;
#163 = CALENDAR_DATE ( 2020, 18, 8 ) ;
#164 = ORIENTED_EDGE ( 'NONE', *, *, #294, .F. ) ;
#165 = CONICAL_SURFACE ( 'NONE', #274, 12.69999999999999929, 0.8080414662313800678 ) ;
#166 = DIRECTION ( 'NONE',  ( 0.0000000000000000000, 1.000000000000000000, 3.122502256758253756E-16 ) ) ;
#167 = AXIS2_PLACEMENT_3D ( 'NONE', #195, #72, #243 ) ;
#168 = EDGE_CURVE ( 'NONE', #278, #230, #282, .T. ) ;
#169 = DIRECTION ( 'NONE',  ( -0.0000000000000000000, 3.061515884556191637E-16, -1.000000000000000000 ) ) ;
#170 = ORIENTED_EDGE ( 'NONE', *, *, #24, .T. ) ;
#171 = DESIGN_CONTEXT ( 'detailed design', #225, 'design' ) ;
#172 = AXIS2_PLACEMENT_3D ( 'NONE', #190, #42, #89 ) ;
#173 = CARTESIAN_POINT ( 'NONE',  ( 0.0000000000000000000, -3.459904823581439233E-14, 281.5319999999999823 ) ) ;
#174 = DIRECTION ( 'NONE',  ( -0.0000000000000000000, 3.061515884555943146E-16, -1.000000000000000000 ) ) ;
#175 = DIRECTION ( 'NONE',  ( 0.0000000000000000000, 1.000000000000000000, 3.073328992872296367E-16 ) ) ;
#176 = DIRECTION ( 'NONE',  ( 0.0000000000000000000, 1.000000000000000000, 3.957562861367532226E-16 ) ) ;
#177 = PERSON_AND_ORGANIZATION_ROLE ( 'creator' ) ;
#178 = PERSON_AND_ORGANIZATION_ROLE ( 'design_supplier' ) ;
#179 = FACE_OUTER_BOUND ( 'NONE', #51, .T. ) ;
#180 = ORIENTED_EDGE ( 'NONE', *, *, #90, .T. ) ;
#181 = CARTESIAN_POINT ( 'NONE',  ( 0.0000000000000000000, 6.846389996973066008E-14, 1.000000000000000888 ) ) ;
#182 = CARTESIAN_POINT ( 'NONE',  ( 1.555301434917138433E-15, -12.69999999999999929, 1.087619103611710436 ) ) ;
#183 = ADVANCED_FACE ( 'NONE', ( #206 ), #165, .T. ) ;
#184 = PERSON ( 'UNSPECIFIED', 'UNSPECIFIED', 'UNSPECIFIED', ('UNSPECIFIED'), ('UNSPECIFIED'), ('UNSPECIFIED') ) ;
#185 = SECURITY_CLASSIFICATION ( '', '', #221 ) ;
#186 = ORIENTED_EDGE ( 'NONE', *, *, #75, .T. ) ;
#187 = ORIENTED_EDGE ( 'NONE', *, *, #43, .T. ) ;
#188 = ORIENTED_EDGE ( 'NONE', *, *, #133, .F. ) ;
#189 = ORIENTED_EDGE ( 'NONE', *, *, #90, .F. ) ;
#190 = CARTESIAN_POINT ( 'NONE',  ( 0.0000000000000000000, 1.836909530733571311E-16, -1.000000000000001998 ) ) ;
#191 = APPROVAL_PERSON_ORGANIZATION ( #208, #148, #289 ) ;
#192 = DIRECTION ( 'NONE',  ( 0.0000000000000000000, 1.000000000000000000, 3.073328992872296367E-16 ) ) ;
#193 = ORIENTED_EDGE ( 'NONE', *, *, #133, .T. ) ;
#194 = AXIS2_PLACEMENT_3D ( 'NONE', #232, #11, #240 ) ;
#195 = CARTESIAN_POINT ( 'NONE',  ( 0.0000000000000000000, 5.120096522290428163E-14, 1.278633059992928533 ) ) ;
#196 = AXIS2_PLACEMENT_3D ( 'NONE', #9, #201, #74 ) ;
#197 = DIRECTION ( 'NONE',  ( 0.0000000000000000000, -3.061515884555943639E-16, 1.000000000000000000 ) ) ;
#198 = CALENDAR_DATE ( 2020, 18, 8 ) ;
#199 = PERSON_AND_ORGANIZATION_ROLE ( 'creator' ) ;
#200 = VERTEX_POINT ( 'NONE', #4 ) ;
#201 = DIRECTION ( 'NONE',  ( -0.0000000000000000000, 3.061515884556191637E-16, -1.000000000000000000 ) ) ;
#202 = DIRECTION ( 'NONE',  ( 0.0000000000000000000, -3.061515884556191637E-16, 1.000000000000000000 ) ) ;
#203 = DATE_AND_TIME ( #262, #84 ) ;
#204 = AXIS2_PLACEMENT_3D ( 'NONE', #139, #112, #87 ) ;
#205 = PRODUCT ( 'TTN206862-E0W', 'TTN206862-E0W', '', ( #12 ) ) ;
#206 = FACE_OUTER_BOUND ( 'NONE', #26, .T. ) ;
#207 = VERTEX_POINT ( 'NONE', #44 ) ;
#208 = PERSON_AND_ORGANIZATION ( #184, #103 ) ;
#209 = AXIS2_PLACEMENT_3D ( 'NONE', #78, #228, #127 ) ;
#210 = CONICAL_SURFACE ( 'NONE', #172, 12.49999999999999645, 0.7853981633974479459 ) ;
#211 = CARTESIAN_POINT ( 'NONE',  ( 0.0000000000000000000, -4.554369515876158203E-16, 1.087619103611714433 ) ) ;
#212 = APPROVAL ( #77, 'UNSPECIFIED' ) ;
#213 = CARTESIAN_POINT ( 'NONE',  ( 1.543054966925664878E-15, 12.49999999999999645, -0.9999999999999981126 ) ) ;
#214 = PERSON_AND_ORGANIZATION ( #184, #103 ) ;
#215 = FACE_OUTER_BOUND ( 'NONE', #237, .T. ) ;
#216 = VERTEX_POINT ( 'NONE', #213 ) ;
#217 = CC_DESIGN_PERSON_AND_ORGANIZATION_ASSIGNMENT ( #94, #10, ( #185 ) ) ;
#218 = DIRECTION ( 'NONE',  ( -0.0000000000000000000, 3.061515884556191637E-16, -1.000000000000000000 ) ) ;
#219 = CARTESIAN_POINT ( 'NONE',  ( 0.0000000000000000000, -3.459904823581439233E-14, 281.5319999999999823 ) ) ;
#220 = ADVANCED_FACE ( 'NONE', ( #86 ), #146, .T. ) ;
#221 = SECURITY_CLASSIFICATION_LEVEL ( 'unclassified' ) ;
#222 = CARTESIAN_POINT ( 'NONE',  ( 1.555301434917138433E-15, -12.69999999999999929, -1.000000000000003997 ) ) ;
#223 = LINE ( 'NONE', #182, #92 ) ;
#224 = EDGE_CURVE ( 'NONE', #207, #200, #80, .T. ) ;
#225 = APPLICATION_CONTEXT ( 'configuration controlled 3d designs of mechanical parts and assemblies' ) ;
#226 = ADVANCED_FACE ( 'NONE', ( #138 ), #95, .T. ) ;
#227 = CC_DESIGN_PERSON_AND_ORGANIZATION_ASSIGNMENT ( #248, #199, ( #118 ) ) ;
#228 = DIRECTION ( 'NONE',  ( -0.0000000000000000000, 3.061515884555943146E-16, -1.000000000000000000 ) ) ;
#229 = COORDINATED_UNIVERSAL_TIME_OFFSET ( 5, 0, .BEHIND. ) ;
#230 = VERTEX_POINT ( 'NONE', #50 ) ;
#231 = DIRECTION ( 'NONE',  ( 0.0000000000000000000, 1.000000000000000000, 3.073328992872296367E-16 ) ) ;
#232 = CARTESIAN_POINT ( 'NONE',  ( 0.0000000000000000000, -4.554369515876137495E-16, 1.087619103611714433 ) ) ;
#233 = AXIS2_PLACEMENT_3D ( 'NONE', #155, #15, #231 ) ;
#234 = EDGE_LOOP ( 'NONE', ( #140, #186, #160 ) ) ;
#235 = DIRECTION ( 'NONE',  ( -0.0000000000000000000, 3.061515884555943146E-16, -1.000000000000000000 ) ) ;
#236 = VECTOR ( 'NONE', #108, 1000.000000000000114 ) ;
#237 = EDGE_LOOP ( 'NONE', ( #189, #170, #124, #64 ) ) ;
#238 = DIRECTION ( 'NONE',  ( -0.0000000000000000000, 3.061515884555943146E-16, -1.000000000000000000 ) ) ;
#239 = CARTESIAN_POINT ( 'NONE',  ( 0.0000000000000000000, 1.836909530733571064E-16, -1.000000000000001998 ) ) ;
#240 = DIRECTION ( 'NONE',  ( 0.0000000000000000000, -1.000000000000000000, -3.073328992872296367E-16 ) ) ;
#241 = AXIS2_PLACEMENT_3D ( 'NONE', #219, #156, #176 ) ;
#242 = ORIENTED_EDGE ( 'NONE', *, *, #224, .T. ) ;
#243 = DIRECTION ( 'NONE',  ( 0.0000000000000000000, -1.000000000000000000, -3.122468856114564555E-16 ) ) ;
#244 = DIRECTION ( 'NONE',  ( 0.0000000000000000000, -3.061515884555943639E-16, 1.000000000000000000 ) ) ;
#245 = AXIS2_PLACEMENT_3D ( 'NONE', #173, #266, #27 ) ;
#246 = DIRECTION ( 'NONE',  ( 0.0000000000000000000, 1.000000000000000000, 3.073328992872296367E-16 ) ) ;
#247 = ADVANCED_FACE ( 'NONE', ( #25 ), #158, .F. ) ;
#248 = PERSON_AND_ORGANIZATION ( #184, #103 ) ;
#249 = DATE_TIME_ROLE ( 'classification_date' ) ;
#250 = ORIENTED_EDGE ( 'NONE', *, *, #123, .F. ) ;
#251 = DIRECTION ( 'NONE',  ( 0.0000000000000000000, -1.000000000000000000, -3.122502256758253756E-16 ) ) ;
#252 = LINE ( 'NONE', #79, #117 ) ;
#253 = CIRCLE ( 'NONE', #167, 12.50013371087602110 ) ;
#254 = ORIENTED_EDGE ( 'NONE', *, *, #24, .F. ) ;
#255 = DATE_AND_TIME ( #198, #73 ) ;
#256 = AXIS2_PLACEMENT_3D ( 'NONE', #239, #257, #166 ) ;
#257 = DIRECTION ( 'NONE',  ( -0.0000000000000000000, 3.061515884555943146E-16, -1.000000000000000000 ) ) ;
#258 = UNCERTAINTY_MEASURE_WITH_UNIT (LENGTH_MEASURE( 1.000000000000000082E-05 ), #154, 'distance_accuracy_value', 'NONE');
#259 = CLOSED_SHELL ( 'NONE', ( #183, #152, #247, #299, #76, #270, #150, #226, #220 ) ) ;
#260 = CC_DESIGN_PERSON_AND_ORGANIZATION_ASSIGNMENT ( #83, #151, ( #205 ) ) ;
#261 = CALENDAR_DATE ( 2020, 18, 8 ) ;
#262 = CALENDAR_DATE ( 2020, 18, 8 ) ;
#263 = FACE_OUTER_BOUND ( 'NONE', #114, .T. ) ;
#264 = ORIENTED_EDGE ( 'NONE', *, *, #168, .T. ) ;
#265 = CARTESIAN_POINT ( 'NONE',  ( 1.555301434917138433E-15, -12.69999999999999929, 1.087619103611710436 ) ) ;
#266 = DIRECTION ( 'NONE',  ( -1.000000000000000000, 0.0000000000000000000, 0.0000000000000000000 ) ) ;
#267 = EDGE_LOOP ( 'NONE', ( #142, #82, #296, #242 ) ) ;
#268 = DATE_TIME_ROLE ( 'creation_date' ) ;
#269 = PERSON_AND_ORGANIZATION ( #184, #103 ) ;
#270 = ADVANCED_FACE ( 'NONE', ( #277 ), #115, .T. ) ;
#271 = APPLICATION_PROTOCOL_DEFINITION ( 'international standard', 'config_control_design', 1994, #7 ) ;
#272 = APPROVAL_ROLE ( '' ) ;
#273 = DIRECTION ( 'NONE',  ( -0.0000000000000000000, 3.061515884555943146E-16, -1.000000000000000000 ) ) ;
#274 = AXIS2_PLACEMENT_3D ( 'NONE', #66, #169, #192 ) ;
#275 = DIRECTION ( 'NONE',  ( 0.0000000000000000000, 0.0000000000000000000, 1.000000000000000000 ) ) ;
#276 = APPROVAL_DATE_TIME ( #33, #290 ) ;
#277 = FACE_OUTER_BOUND ( 'NONE', #267, .T. ) ;
#278 = VERTEX_POINT ( 'NONE', #30 ) ;
#279 = VECTOR ( 'NONE', #174, 1000.000000000000000 ) ;
#280 = APPROVAL_PERSON_ORGANIZATION ( #214, #290, #272 ) ;
#281 = ORIENTED_EDGE ( 'NONE', *, *, #60, .T. ) ;
#282 = LINE ( 'NONE', #68, #36 ) ;
#283 = DIRECTION ( 'NONE',  ( 0.0000000000000000000, 1.000000000000000000, 3.061515884555943146E-16 ) ) ;
#284 = DIRECTION ( 'NONE',  ( 0.0000000000000000000, 0.7229353801394500234, -0.6909156505266245141 ) ) ;
#285 = LINE ( 'NONE', #287, #279 ) ;
#286 = CC_DESIGN_PERSON_AND_ORGANIZATION_ASSIGNMENT ( #141, #177, ( #2 ) ) ;
#287 = CARTESIAN_POINT ( 'NONE',  ( 0.0000000000000000000, 12.69999999999999929, -0.9999999999999961142 ) ) ;
#288 = DIRECTION ( 'NONE',  ( 0.0000000000000000000, 1.000000000000000000, 3.122502256758253756E-16 ) ) ;
#289 = APPROVAL_ROLE ( '' ) ;
#290 = APPROVAL ( #101, 'UNSPECIFIED' ) ;
#291 = ORIENTED_EDGE ( 'NONE', *, *, #294, .T. ) ;
#292 = CARTESIAN_POINT ( 'NONE',  ( 0.0000000000000000000, 1.836909530733565148E-16, -1.000000000000000000 ) ) ;
#293 = CARTESIAN_POINT ( 'NONE',  ( 0.0000000000000000000, 1.836909530733571311E-16, -1.000000000000001998 ) ) ;
#294 = EDGE_CURVE ( 'NONE', #230, #131, #18, .T. ) ;
#295 = ORIENTED_EDGE ( 'NONE', *, *, #75, .F. ) ;
#296 = ORIENTED_EDGE ( 'NONE', *, *, #123, .T. ) ;
#297 = DIRECTION ( 'NONE',  ( 1.000000000000000000, 0.0000000000000000000, 0.0000000000000000000 ) ) ;
#298 = CARTESIAN_POINT ( 'NONE',  ( 1.530808498934191127E-15, 12.49999999999999645, -0.9999999999999981126 ) ) ;
#299 = ADVANCED_FACE ( 'NONE', ( #263 ), #32, .T. ) ;
#300 = ORIENTED_EDGE ( 'NONE', *, *, #14, .F. ) ;
#301 = AXIS2_PLACEMENT_3D ( 'NONE', #34, #202, #128 ) ;
ENDSEC;
END-ISO-10303-21;
