ISO-10303-21;
HEADER;
FILE_DESCRIPTION (( 'STEP AP203' ),
    '1' );
FILE_NAME ('Web Model 19636_19640.step',
    '2022-01-11T21:55:30',
    ( '' ),
    ( '' ),
    'SwSTEP 2.0',
    'SolidWorks 2018',
    '' );
FILE_SCHEMA (( 'CONFIG_CONTROL_DESIGN' ));
ENDSEC;

DATA;
#1 = CARTESIAN_POINT ( 'NONE',  ( -101.5999999999999943, 126.9999999999999716, 1.520000000000000018 ) ) ;
#2 = VERTEX_POINT ( 'NONE', #237 ) ;
#3 = EDGE_CURVE ( 'NONE', #212, #137, #176, .T. ) ;
#4 = PERSON_AND_ORGANIZATION ( #13, #205 ) ;
#5 = ADVANCED_BREP_SHAPE_REPRESENTATION ( 'Web Model 19636_19640', ( #52, #181 ), #41 ) ;
#6 = FACE_OUTER_BOUND ( 'NONE', #98, .T. ) ;
#7 = VERTEX_POINT ( 'NONE', #222 ) ;
#8 = APPROVAL ( #136, 'UNSPECIFIED' ) ;
#9 = CARTESIAN_POINT ( 'NONE',  ( 101.5999999999999943, 126.9999999999999716, 1.520000000000000018 ) ) ;
#10 = DIRECTION ( 'NONE',  ( 1.000000000000000000, 0.000000000000000000, 0.000000000000000000 ) ) ;
#11 = PLANE ( 'NONE',  #210 ) ;
#12 = DIRECTION ( 'NONE',  ( -1.092739197465705287E-16, 1.000000000000000000, -0.000000000000000000 ) ) ;
#13 = PERSON ( 'UNSPECIFIED', 'UNSPECIFIED', 'UNSPECIFIED', ('UNSPECIFIED'), ('UNSPECIFIED'), ('UNSPECIFIED') ) ;
#14 = LINE ( 'NONE', #104, #162 ) ;
#15 = DIRECTION ( 'NONE',  ( 1.000000000000000000, 0.000000000000000000, 0.000000000000000000 ) ) ;
#16 = LINE ( 'NONE', #55, #68 ) ;
#17 = CALENDAR_DATE ( 2022, 11, 1 ) ;
#18 = SECURITY_CLASSIFICATION_LEVEL ( 'unclassified' ) ;
#19 = ORIENTED_EDGE ( 'NONE', *, *, #108, .F. ) ;
#20 = PLANE ( 'NONE',  #147 ) ;
#21 = CC_DESIGN_PERSON_AND_ORGANIZATION_ASSIGNMENT ( #140, #202, ( #57 ) ) ;
#22 = EDGE_LOOP ( 'NONE', ( #186, #191, #75, #216 ) ) ;
#23 = LINE ( 'NONE', #9, #83 ) ;
#24 = APPROVAL ( #42, 'UNSPECIFIED' ) ;
#25 = VERTEX_POINT ( 'NONE', #187 ) ;
#26 = DATE_AND_TIME ( #86, #119 ) ;
#27 = EDGE_CURVE ( 'NONE', #137, #7, #14, .T. ) ;
#28 = LINE ( 'NONE', #79, #161 ) ;
#29 = CARTESIAN_POINT ( 'NONE',  ( -101.5999999999999943, 126.9999999999999716, 0.000000000000000000 ) ) ;
#30 = DATE_AND_TIME ( #141, #100 ) ;
#31 = UNCERTAINTY_MEASURE_WITH_UNIT (LENGTH_MEASURE( 1.000000000000000082E-05 ), #229, 'distance_accuracy_value', 'NONE');
#32 =( NAMED_UNIT ( * ) SI_UNIT ( $, .STERADIAN. ) SOLID_ANGLE_UNIT ( ) );
#33 = ORIENTED_EDGE ( 'NONE', *, *, #145, .T. ) ;
#34 = CARTESIAN_POINT ( 'NONE',  ( -101.5999999999999943, 126.9999999999999716, 1.520000000000000018 ) ) ;
#35 = PLANE ( 'NONE',  #188 ) ;
#36 = EDGE_CURVE ( 'NONE', #212, #175, #200, .T. ) ;
#37 = DIRECTION ( 'NONE',  ( 0.000000000000000000, -1.000000000000000000, 0.000000000000000000 ) ) ;
#38 = ORIENTED_EDGE ( 'NONE', *, *, #112, .F. ) ;
#39 = DATE_TIME_ROLE ( 'creation_date' ) ;
#40 = SHAPE_DEFINITION_REPRESENTATION ( #63, #5 ) ;
#41 =( GEOMETRIC_REPRESENTATION_CONTEXT ( 3 ) GLOBAL_UNCERTAINTY_ASSIGNED_CONTEXT ( ( #31 ) ) GLOBAL_UNIT_ASSIGNED_CONTEXT ( ( #229, #127, #32 ) ) REPRESENTATION_CONTEXT ( 'NONE', 'WORKASPACE' ) );
#42 = APPROVAL_STATUS ( 'not_yet_approved' ) ;
#43 = DIRECTION ( 'NONE',  ( -0.000000000000000000, -0.000000000000000000, -1.000000000000000000 ) ) ;
#44 = CC_DESIGN_APPROVAL ( #24, ( #230 ) ) ;
#45 = FACE_OUTER_BOUND ( 'NONE', #22, .T. ) ;
#46 = ADVANCED_FACE ( 'NONE', ( #61 ), #20, .F. ) ;
#47 = EDGE_LOOP ( 'NONE', ( #93, #139, #87, #172 ) ) ;
#48 = VECTOR ( 'NONE', #228, 1000.000000000000000 ) ;
#49 = LINE ( 'NONE', #29, #103 ) ;
#50 = EDGE_LOOP ( 'NONE', ( #143, #19, #166, #67 ) ) ;
#51 = PERSON_AND_ORGANIZATION ( #13, #205 ) ;
#52 = MANIFOLD_SOLID_BREP ( 'Boss-Extrude1', #133 ) ;
#53 = CC_DESIGN_PERSON_AND_ORGANIZATION_ASSIGNMENT ( #51, #102, ( #207 ) ) ;
#54 = APPLICATION_CONTEXT ( 'configuration controlled 3d designs of mechanical parts and assemblies' ) ;
#55 = CARTESIAN_POINT ( 'NONE',  ( 101.5999999999999943, 126.9999999999999716, 0.000000000000000000 ) ) ;
#56 = CARTESIAN_POINT ( 'NONE',  ( -101.5999999999999659, -127.0000000000000284, 1.520000000000000018 ) ) ;
#57 = PRODUCT ( 'Web Model 19636_19640', 'Web Model 19636_19640', '', ( #114 ) ) ;
#58 = PLANE ( 'NONE',  #192 ) ;
#59 = EDGE_CURVE ( 'NONE', #2, #212, #28, .T. ) ;
#60 = PERSON_AND_ORGANIZATION ( #13, #205 ) ;
#61 = FACE_OUTER_BOUND ( 'NONE', #223, .T. ) ;
#62 = VECTOR ( 'NONE', #72, 1000.000000000000000 ) ;
#63 = PRODUCT_DEFINITION_SHAPE ( 'NONE', 'NONE',  #131 ) ;
#64 = CARTESIAN_POINT ( 'NONE',  ( -101.5999999999999943, 126.9999999999999716, 1.520000000000000018 ) ) ;
#65 = VECTOR ( 'NONE', #10, 1000.000000000000000 ) ;
#66 = VERTEX_POINT ( 'NONE', #189 ) ;
#67 = ORIENTED_EDGE ( 'NONE', *, *, #3, .T. ) ;
#68 = VECTOR ( 'NONE', #12, 1000.000000000000000 ) ;
#69 = CARTESIAN_POINT ( 'NONE',  ( -101.5999999999999659, -127.0000000000000284, 1.520000000000000018 ) ) ;
#70 = CARTESIAN_POINT ( 'NONE',  ( 0.000000000000000000, 0.000000000000000000, 1.520000000000000018 ) ) ;
#71 = CC_DESIGN_PERSON_AND_ORGANIZATION_ASSIGNMENT ( #60, #219, ( #230 ) ) ;
#72 = DIRECTION ( 'NONE',  ( -0.000000000000000000, -0.000000000000000000, -1.000000000000000000 ) ) ;
#73 = DIRECTION ( 'NONE',  ( -0.000000000000000000, -0.000000000000000000, -1.000000000000000000 ) ) ;
#74 = DIRECTION ( 'NONE',  ( 1.000000000000000000, 0.000000000000000000, 0.000000000000000000 ) ) ;
#75 = ORIENTED_EDGE ( 'NONE', *, *, #59, .F. ) ;
#76 = ADVANCED_FACE ( 'NONE', ( #6 ), #35, .F. ) ;
#77 = CC_DESIGN_SECURITY_CLASSIFICATION ( #207, ( #230 ) ) ;
#78 = APPLICATION_PROTOCOL_DEFINITION ( 'international standard', 'config_control_design', 1994, #54 ) ;
#79 = CARTESIAN_POINT ( 'NONE',  ( -101.5999999999999943, 126.9999999999999716, 1.520000000000000018 ) ) ;
#80 = ADVANCED_FACE ( 'NONE', ( #134 ), #11, .F. ) ;
#81 = DIRECTION ( 'NONE',  ( 0.000000000000000000, -0.000000000000000000, 1.000000000000000000 ) ) ;
#82 = VECTOR ( 'NONE', #43, 1000.000000000000000 ) ;
#83 = VECTOR ( 'NONE', #167, 1000.000000000000000 ) ;
#84 = COORDINATED_UNIVERSAL_TIME_OFFSET ( 5, 0, .BEHIND. ) ;
#85 = ORIENTED_EDGE ( 'NONE', *, *, #105, .T. ) ;
#86 = CALENDAR_DATE ( 2022, 11, 1 ) ;
#87 = ORIENTED_EDGE ( 'NONE', *, *, #36, .T. ) ;
#88 = LINE ( 'NONE', #215, #48 ) ;
#89 = LOCAL_TIME ( 16, 55, 30.00000000000000000, #220 ) ;
#90 = PRODUCT_RELATED_PRODUCT_CATEGORY ( 'detail', '', ( #57 ) ) ;
#91 = PLANE ( 'NONE',  #193 ) ;
#92 = PERSON_AND_ORGANIZATION ( #13, #205 ) ;
#93 = ORIENTED_EDGE ( 'NONE', *, *, #124, .T. ) ;
#94 = EDGE_CURVE ( 'NONE', #2, #25, #23, .T. ) ;
#95 = DIRECTION ( 'NONE',  ( -0.000000000000000000, 0.000000000000000000, 1.000000000000000000 ) ) ;
#96 = VECTOR ( 'NONE', #73, 1000.000000000000000 ) ;
#97 = DIRECTION ( 'NONE',  ( 1.000000000000000000, 0.000000000000000000, 0.000000000000000000 ) ) ;
#98 = EDGE_LOOP ( 'NONE', ( #85, #209, #116, #33 ) ) ;
#99 = FACE_OUTER_BOUND ( 'NONE', #198, .T. ) ;
#100 = LOCAL_TIME ( 16, 55, 30.00000000000000000, #171 ) ;
#101 = ADVANCED_FACE ( 'NONE', ( #99 ), #91, .F. ) ;
#102 = PERSON_AND_ORGANIZATION_ROLE ( 'classification_officer' ) ;
#103 = VECTOR ( 'NONE', #152, 1000.000000000000000 ) ;
#104 = CARTESIAN_POINT ( 'NONE',  ( -101.5999999999999943, 126.9999999999999716, 0.000000000000000000 ) ) ;
#105 = EDGE_CURVE ( 'NONE', #106, #25, #16, .T. ) ;
#106 = VERTEX_POINT ( 'NONE', #164 ) ;
#107 = DESIGN_CONTEXT ( 'detailed design', #153, 'design' ) ;
#108 = EDGE_CURVE ( 'NONE', #175, #7, #115, .T. ) ;
#109 = ORIENTED_EDGE ( 'NONE', *, *, #145, .F. ) ;
#110 = CC_DESIGN_PERSON_AND_ORGANIZATION_ASSIGNMENT ( #177, #236, ( #230 ) ) ;
#111 = APPROVAL_DATE_TIME ( #30, #24 ) ;
#112 = EDGE_CURVE ( 'NONE', #7, #106, #195, .T. ) ;
#113 = CARTESIAN_POINT ( 'NONE',  ( 0.000000000000000000, 0.000000000000000000, 0.000000000000000000 ) ) ;
#114 = MECHANICAL_CONTEXT ( 'NONE', #54, 'mechanical' ) ;
#115 = LINE ( 'NONE', #214, #62 ) ;
#116 = ORIENTED_EDGE ( 'NONE', *, *, #124, .F. ) ;
#117 = DIRECTION ( 'NONE',  ( 1.092739197465705287E-16, -1.000000000000000000, 0.000000000000000000 ) ) ;
#118 = DIRECTION ( 'NONE',  ( -1.000000000000000000, -0.000000000000000000, -0.000000000000000000 ) ) ;
#119 = LOCAL_TIME ( 16, 55, 30.00000000000000000, #182 ) ;
#120 = ORIENTED_EDGE ( 'NONE', *, *, #199, .F. ) ;
#121 = LOCAL_TIME ( 16, 55, 30.00000000000000000, #169 ) ;
#122 = CALENDAR_DATE ( 2022, 11, 1 ) ;
#123 = ORIENTED_EDGE ( 'NONE', *, *, #108, .T. ) ;
#124 = EDGE_CURVE ( 'NONE', #66, #2, #88, .T. ) ;
#125 = DIRECTION ( 'NONE',  ( 0.000000000000000000, 0.000000000000000000, 1.000000000000000000 ) ) ;
#126 = APPROVAL_DATE_TIME ( #225, #213 ) ;
#127 =( NAMED_UNIT ( * ) PLANE_ANGLE_UNIT ( ) SI_UNIT ( $, .RADIAN. ) );
#128 = CARTESIAN_POINT ( 'NONE',  ( -101.5999999999999943, 126.9999999999999716, 1.520000000000000018 ) ) ;
#129 = DIRECTION ( 'NONE',  ( 1.000000000000000000, 0.000000000000000000, 0.000000000000000000 ) ) ;
#130 = DIRECTION ( 'NONE',  ( 1.000000000000000000, 1.092739197465705164E-16, -0.000000000000000000 ) ) ;
#131 = PRODUCT_DEFINITION ( 'UNKNOWN', '', #230, #107 ) ;
#132 = LINE ( 'NONE', #151, #96 ) ;
#133 = CLOSED_SHELL ( 'NONE', ( #76, #170, #80, #46, #218, #101 ) ) ;
#134 = FACE_OUTER_BOUND ( 'NONE', #50, .T. ) ;
#135 = APPROVAL_PERSON_ORGANIZATION ( #4, #213, #154 ) ;
#136 = APPROVAL_STATUS ( 'not_yet_approved' ) ;
#137 = VERTEX_POINT ( 'NONE', #163 ) ;
#138 = DIRECTION ( 'NONE',  ( 1.092739197465705287E-16, -1.000000000000000000, 0.000000000000000000 ) ) ;
#139 = ORIENTED_EDGE ( 'NONE', *, *, #59, .T. ) ;
#140 = PERSON_AND_ORGANIZATION ( #13, #205 ) ;
#141 = CALENDAR_DATE ( 2022, 11, 1 ) ;
#142 = CC_DESIGN_DATE_AND_TIME_ASSIGNMENT ( #155, #203, ( #207 ) ) ;
#143 = ORIENTED_EDGE ( 'NONE', *, *, #27, .T. ) ;
#144 = APPROVAL_PERSON_ORGANIZATION ( #160, #24, #168 ) ;
#145 = EDGE_CURVE ( 'NONE', #66, #106, #132, .T. ) ;
#146 = CC_DESIGN_PERSON_AND_ORGANIZATION_ASSIGNMENT ( #92, #234, ( #131 ) ) ;
#147 = AXIS2_PLACEMENT_3D ( 'NONE', #190, #206, #81 ) ;
#148 = CARTESIAN_POINT ( 'NONE',  ( -101.5999999999999943, 126.9999999999999716, 1.520000000000000018 ) ) ;
#149 = DATE_AND_TIME ( #17, #121 ) ;
#150 = PLANE ( 'NONE',  #235 ) ;
#151 = CARTESIAN_POINT ( 'NONE',  ( 101.6000000000000227, -127.0000000000000284, 1.520000000000000018 ) ) ;
#152 = DIRECTION ( 'NONE',  ( -1.000000000000000000, -0.000000000000000000, -0.000000000000000000 ) ) ;
#153 = APPLICATION_CONTEXT ( 'configuration controlled 3d designs of mechanical parts and assemblies' ) ;
#154 = APPROVAL_ROLE ( '' ) ;
#155 = DATE_AND_TIME ( #122, #89 ) ;
#156 = APPLICATION_PROTOCOL_DEFINITION ( 'international standard', 'config_control_design', 1994, #153 ) ;
#157 = CC_DESIGN_APPROVAL ( #213, ( #207 ) ) ;
#158 = APPROVAL_STATUS ( 'not_yet_approved' ) ;
#159 = VECTOR ( 'NONE', #138, 1000.000000000000000 ) ;
#160 = PERSON_AND_ORGANIZATION ( #13, #205 ) ;
#161 = VECTOR ( 'NONE', #118, 1000.000000000000000 ) ;
#162 = VECTOR ( 'NONE', #117, 1000.000000000000000 ) ;
#163 = CARTESIAN_POINT ( 'NONE',  ( -101.5999999999999943, 126.9999999999999716, 0.000000000000000000 ) ) ;
#164 = CARTESIAN_POINT ( 'NONE',  ( 101.6000000000000227, -127.0000000000000284, 0.000000000000000000 ) ) ;
#165 = EDGE_CURVE ( 'NONE', #175, #66, #226, .T. ) ;
#166 = ORIENTED_EDGE ( 'NONE', *, *, #36, .F. ) ;
#167 = DIRECTION ( 'NONE',  ( -0.000000000000000000, -0.000000000000000000, -1.000000000000000000 ) ) ;
#168 = APPROVAL_ROLE ( '' ) ;
#169 = COORDINATED_UNIVERSAL_TIME_OFFSET ( 5, 0, .BEHIND. ) ;
#170 = ADVANCED_FACE ( 'NONE', ( #45 ), #150, .F. ) ;
#171 = COORDINATED_UNIVERSAL_TIME_OFFSET ( 5, 0, .BEHIND. ) ;
#172 = ORIENTED_EDGE ( 'NONE', *, *, #165, .T. ) ;
#173 = CALENDAR_DATE ( 2022, 11, 1 ) ;
#174 = FACE_OUTER_BOUND ( 'NONE', #47, .T. ) ;
#175 = VERTEX_POINT ( 'NONE', #69 ) ;
#176 = LINE ( 'NONE', #64, #82 ) ;
#177 = PERSON_AND_ORGANIZATION ( #13, #205 ) ;
#178 = DIRECTION ( 'NONE',  ( 0.000000000000000000, -0.000000000000000000, -1.000000000000000000 ) ) ;
#179 = ORIENTED_EDGE ( 'NONE', *, *, #165, .F. ) ;
#180 = CARTESIAN_POINT ( 'NONE',  ( 101.5999999999999943, 126.9999999999999716, 1.520000000000000018 ) ) ;
#181 = AXIS2_PLACEMENT_3D ( 'NONE', #197, #125, #15 ) ;
#182 = COORDINATED_UNIVERSAL_TIME_OFFSET ( 5, 0, .BEHIND. ) ;
#183 = DIRECTION ( 'NONE',  ( -1.092739197465705164E-16, 1.000000000000000000, 0.000000000000000000 ) ) ;
#184 = APPROVAL_ROLE ( '' ) ;
#185 = APPROVAL_DATE_TIME ( #149, #8 ) ;
#186 = ORIENTED_EDGE ( 'NONE', *, *, #199, .T. ) ;
#187 = CARTESIAN_POINT ( 'NONE',  ( 101.5999999999999943, 126.9999999999999716, 0.000000000000000000 ) ) ;
#188 = AXIS2_PLACEMENT_3D ( 'NONE', #180, #231, #196 ) ;
#189 = CARTESIAN_POINT ( 'NONE',  ( 101.6000000000000227, -127.0000000000000284, 1.520000000000000018 ) ) ;
#190 = CARTESIAN_POINT ( 'NONE',  ( -101.5999999999999659, -127.0000000000000284, 1.520000000000000018 ) ) ;
#191 = ORIENTED_EDGE ( 'NONE', *, *, #3, .F. ) ;
#192 = AXIS2_PLACEMENT_3D ( 'NONE', #70, #232, #74 ) ;
#193 = AXIS2_PLACEMENT_3D ( 'NONE', #113, #95, #97 ) ;
#194 = ORIENTED_EDGE ( 'NONE', *, *, #105, .F. ) ;
#195 = LINE ( 'NONE', #211, #227 ) ;
#196 = DIRECTION ( 'NONE',  ( 1.092739197465705164E-16, -1.000000000000000000, 0.000000000000000000 ) ) ;
#197 = CARTESIAN_POINT ( 'NONE',  ( 0.000000000000000000, 0.000000000000000000, 0.000000000000000000 ) ) ;
#198 = EDGE_LOOP ( 'NONE', ( #194, #38, #208, #120 ) ) ;
#199 = EDGE_CURVE ( 'NONE', #25, #137, #49, .T. ) ;
#200 = LINE ( 'NONE', #1, #159 ) ;
#201 = APPROVAL_PERSON_ORGANIZATION ( #217, #8, #184 ) ;
#202 = PERSON_AND_ORGANIZATION_ROLE ( 'design_owner' ) ;
#203 = DATE_TIME_ROLE ( 'classification_date' ) ;
#204 = CC_DESIGN_DATE_AND_TIME_ASSIGNMENT ( #26, #39, ( #131 ) ) ;
#205 = ORGANIZATION ( 'UNSPECIFIED', 'UNSPECIFIED', '' ) ;
#206 = DIRECTION ( 'NONE',  ( 0.000000000000000000, 1.000000000000000000, 0.000000000000000000 ) ) ;
#207 = SECURITY_CLASSIFICATION ( '', '', #18 ) ;
#208 = ORIENTED_EDGE ( 'NONE', *, *, #27, .F. ) ;
#209 = ORIENTED_EDGE ( 'NONE', *, *, #94, .F. ) ;
#210 = AXIS2_PLACEMENT_3D ( 'NONE', #148, #130, #183 ) ;
#211 = CARTESIAN_POINT ( 'NONE',  ( -101.5999999999999659, -127.0000000000000284, 0.000000000000000000 ) ) ;
#212 = VERTEX_POINT ( 'NONE', #34 ) ;
#213 = APPROVAL ( #158, 'UNSPECIFIED' ) ;
#214 = CARTESIAN_POINT ( 'NONE',  ( -101.5999999999999659, -127.0000000000000284, 1.520000000000000018 ) ) ;
#215 = CARTESIAN_POINT ( 'NONE',  ( 101.5999999999999943, 126.9999999999999716, 1.520000000000000018 ) ) ;
#216 = ORIENTED_EDGE ( 'NONE', *, *, #94, .T. ) ;
#217 = PERSON_AND_ORGANIZATION ( #13, #205 ) ;
#218 = ADVANCED_FACE ( 'NONE', ( #174 ), #58, .T. ) ;
#219 = PERSON_AND_ORGANIZATION_ROLE ( 'creator' ) ;
#220 = COORDINATED_UNIVERSAL_TIME_OFFSET ( 5, 0, .BEHIND. ) ;
#221 = ORIENTED_EDGE ( 'NONE', *, *, #112, .T. ) ;
#222 = CARTESIAN_POINT ( 'NONE',  ( -101.5999999999999659, -127.0000000000000284, 0.000000000000000000 ) ) ;
#223 = EDGE_LOOP ( 'NONE', ( #221, #109, #179, #123 ) ) ;
#224 = CC_DESIGN_APPROVAL ( #8, ( #131 ) ) ;
#225 = DATE_AND_TIME ( #173, #233 ) ;
#226 = LINE ( 'NONE', #56, #65 ) ;
#227 = VECTOR ( 'NONE', #129, 1000.000000000000000 ) ;
#228 = DIRECTION ( 'NONE',  ( -1.092739197465705287E-16, 1.000000000000000000, -0.000000000000000000 ) ) ;
#229 =( LENGTH_UNIT ( ) NAMED_UNIT ( * ) SI_UNIT ( .MILLI., .METRE. ) );
#230 = PRODUCT_DEFINITION_FORMATION_WITH_SPECIFIED_SOURCE ( 'ANY', '', #57, .NOT_KNOWN. ) ;
#231 = DIRECTION ( 'NONE',  ( -1.000000000000000000, -1.092739197465705164E-16, 0.000000000000000000 ) ) ;
#232 = DIRECTION ( 'NONE',  ( -0.000000000000000000, 0.000000000000000000, 1.000000000000000000 ) ) ;
#233 = LOCAL_TIME ( 16, 55, 30.00000000000000000, #84 ) ;
#234 = PERSON_AND_ORGANIZATION_ROLE ( 'creator' ) ;
#235 = AXIS2_PLACEMENT_3D ( 'NONE', #128, #37, #178 ) ;
#236 = PERSON_AND_ORGANIZATION_ROLE ( 'design_supplier' ) ;
#237 = CARTESIAN_POINT ( 'NONE',  ( 101.5999999999999943, 126.9999999999999716, 1.520000000000000018 ) ) ;
ENDSEC;
END-ISO-10303-21;
