ISO-10303-21;
HEADER;
FILE_DESCRIPTION (( 'STEP AP203' ),
    '1' );
FILE_NAME ('TTN225635-E0W.STEP',
    '2022-08-12T15:58:41',
    ( '' ),
    ( '' ),
    'SwSTEP 2.0',
    'SolidWorks 2018',
    '' );
FILE_SCHEMA (( 'CONFIG_CONTROL_DESIGN' ));
ENDSEC;

DATA;
#1 = CARTESIAN_POINT ( 'NONE',  ( 1.555301434917138519E-18, 0.01269999999999999948, 0.002000000000000002210 ) ) ;
#2 = ORIENTED_EDGE ( 'NONE', *, *, #129, .T. ) ;
#3 = VERTEX_POINT ( 'NONE', #33 ) ;
#4 = ADVANCED_BREP_SHAPE_REPRESENTATION ( 'TTN225635-E0W', ( #229, #217 ), #22 ) ;
#5 = CIRCLE ( 'NONE', #297, 0.01250006501460919871 ) ;
#6 = ORIENTED_EDGE ( 'NONE', *, *, #34, .F. ) ;
#7 = EDGE_LOOP ( 'NONE', ( #91, #163, #12, #28 ) ) ;
#8 = CC_DESIGN_PERSON_AND_ORGANIZATION_ASSIGNMENT ( #151, #87, ( #169 ) ) ;
#9 = PERSON_AND_ORGANIZATION ( #44, #122 ) ;
#10 = CARTESIAN_POINT ( 'NONE',  ( 1.530839862472897837E-18, 0.01250025610272884231, -0.001733273139806838867 ) ) ;
#11 = CC_DESIGN_DATE_AND_TIME_ASSIGNMENT ( #48, #246, ( #65 ) ) ;
#12 = ORIENTED_EDGE ( 'NONE', *, *, #326, .T. ) ;
#13 = CARTESIAN_POINT ( 'NONE',  ( 0.000000000000000000, 0.000000000000000000, 0.3694899999999999851 ) ) ;
#14 = FACE_OUTER_BOUND ( 'NONE', #173, .T. ) ;
#15 = DIRECTION ( 'NONE',  ( -0.000000000000000000, -1.836909530733738204E-16, 1.000000000000000000 ) ) ;
#16 = CC_DESIGN_SECURITY_CLASSIFICATION ( #165, ( #169 ) ) ;
#17 = DIRECTION ( 'NONE',  ( 1.000000000000000000, 0.000000000000000000, 0.000000000000000000 ) ) ;
#18 = ORIENTED_EDGE ( 'NONE', *, *, #172, .F. ) ;
#19 = ORIENTED_EDGE ( 'NONE', *, *, #222, .T. ) ;
#20 = CARTESIAN_POINT ( 'NONE',  ( 0.000000000000000000, 0.000000000000000000, 0.2910479999999999734 ) ) ;
#21 = PERSON_AND_ORGANIZATION ( #44, #122 ) ;
#22 =( GEOMETRIC_REPRESENTATION_CONTEXT ( 3 ) GLOBAL_UNCERTAINTY_ASSIGNED_CONTEXT ( ( #203 ) ) GLOBAL_UNIT_ASSIGNED_CONTEXT ( ( #90, #140, #142 ) ) REPRESENTATION_CONTEXT ( 'NONE', 'WORKASPACE' ) );
#23 = COORDINATED_UNIVERSAL_TIME_OFFSET ( 5, 0, .BEHIND. ) ;
#24 = CONICAL_SURFACE ( 'NONE', #46, 0.01250006501460921605, 0.8026809864835825481 ) ;
#25 = ORIENTED_EDGE ( 'NONE', *, *, #207, .T. ) ;
#26 = VERTEX_POINT ( 'NONE', #32 ) ;
#27 = DIRECTION ( 'NONE',  ( 0.000000000000000000, 1.836909530733887102E-16, -1.000000000000000000 ) ) ;
#28 = ORIENTED_EDGE ( 'NONE', *, *, #84, .T. ) ;
#29 = CIRCLE ( 'NONE', #286, 0.01269999999999999948 ) ;
#30 = LOCAL_TIME ( 11, 58, 41.00000000000000000, #279 ) ;
#31 = FACE_OUTER_BOUND ( 'NONE', #327, .T. ) ;
#32 = CARTESIAN_POINT ( 'NONE',  ( -1.530816460927540261E-18, -0.01250006501460948494, 0.002212654558397113801 ) ) ;
#33 = CARTESIAN_POINT ( 'NONE',  ( 0.000000000000000000, 0.01250006501460962198, 0.002212654558397115535 ) ) ;
#34 = EDGE_CURVE ( 'NONE', #299, #282, #29, .T. ) ;
#35 = CARTESIAN_POINT ( 'NONE',  ( 0.000000000000000000, 5.378127110508689993E-17, -0.001733273139806867924 ) ) ;
#36 = DIRECTION ( 'NONE',  ( 0.000000000000000000, 0.000000000000000000, 1.000000000000000000 ) ) ;
#37 = ORIENTED_EDGE ( 'NONE', *, *, #155, .T. ) ;
#38 = SPHERICAL_SURFACE ( 'NONE', #167, 0.2930479999999999752 ) ;
#39 = CARTESIAN_POINT ( 'NONE',  ( 1.555301434917138519E-18, 0.01269999999999999948, 0.002019513709582145770 ) ) ;
#40 = SECURITY_CLASSIFICATION_LEVEL ( 'unclassified' ) ;
#41 = COORDINATED_UNIVERSAL_TIME_OFFSET ( 5, 0, .BEHIND. ) ;
#42 = APPROVAL_ROLE ( '' ) ;
#43 = VERTEX_POINT ( 'NONE', #224 ) ;
#44 = PERSON ( 'UNSPECIFIED', 'UNSPECIFIED', 'UNSPECIFIED', ('UNSPECIFIED'), ('UNSPECIFIED'), ('UNSPECIFIED') ) ;
#45 = SPHERICAL_SURFACE ( 'NONE', #109, 0.3674899999999999833 ) ;
#46 = AXIS2_PLACEMENT_3D ( 'NONE', #177, #201, #309 ) ;
#47 = DIRECTION ( 'NONE',  ( 0.000000000000000000, 1.000000000000000000, 1.707404996040164512E-16 ) ) ;
#48 = DATE_AND_TIME ( #258, #215 ) ;
#49 = CIRCLE ( 'NONE', #278, 0.3674899999999999833 ) ;
#50 = ORIENTED_EDGE ( 'NONE', *, *, #160, .F. ) ;
#51 = CARTESIAN_POINT ( 'NONE',  ( 0.000000000000000000, -3.584491911140671847E-21, 0.002019513709582143601 ) ) ;
#52 = CIRCLE ( 'NONE', #146, 0.01250025610272877466 ) ;
#53 = CARTESIAN_POINT ( 'NONE',  ( 0.000000000000000000, 0.01250006501460921605, 0.002212654558397033570 ) ) ;
#54 = CARTESIAN_POINT ( 'NONE',  ( 1.555301434917138519E-18, 0.01269999999999999948, -0.001524676839899094917 ) ) ;
#55 = VECTOR ( 'NONE', #290, 1.000000000000000000 ) ;
#56 = CARTESIAN_POINT ( 'NONE',  ( 0.000000000000000000, 0.000000000000000000, 0.000000000000000000 ) ) ;
#57 = EDGE_LOOP ( 'NONE', ( #274, #314, #25, #104 ) ) ;
#58 = CARTESIAN_POINT ( 'NONE',  ( 0.000000000000000000, 0.000000000000000000, 0.002000000000000000042 ) ) ;
#59 = DIRECTION ( 'NONE',  ( 0.000000000000000000, 1.000000000000000000, 1.510548619860617512E-16 ) ) ;
#60 = ADVANCED_FACE ( 'NONE', ( #266 ), #176, .F. ) ;
#61 = ORIENTED_EDGE ( 'NONE', *, *, #99, .T. ) ;
#62 = AXIS2_PLACEMENT_3D ( 'NONE', #74, #283, #209 ) ;
#63 = DATE_AND_TIME ( #234, #67 ) ;
#64 = PERSON_AND_ORGANIZATION_ROLE ( 'classification_officer' ) ;
#65 = PRODUCT_DEFINITION ( 'UNKNOWN', '', #169, #294 ) ;
#66 = APPLICATION_PROTOCOL_DEFINITION ( 'international standard', 'config_control_design', 1994, #110 ) ;
#67 = LOCAL_TIME ( 11, 58, 41.00000000000000000, #212 ) ;
#68 = CIRCLE ( 'NONE', #69, 0.01269999999999999948 ) ;
#69 = AXIS2_PLACEMENT_3D ( 'NONE', #73, #156, #211 ) ;
#70 = ORIENTED_EDGE ( 'NONE', *, *, #189, .T. ) ;
#71 = ORIENTED_EDGE ( 'NONE', *, *, #232, .F. ) ;
#72 = AXIS2_PLACEMENT_3D ( 'NONE', #233, #316, #228 ) ;
#73 = CARTESIAN_POINT ( 'NONE',  ( 0.000000000000000000, 6.474512479966519442E-19, -0.001524676839899097736 ) ) ;
#74 = CARTESIAN_POINT ( 'NONE',  ( 0.000000000000000000, -3.906271850735160314E-20, 0.002212654558397031401 ) ) ;
#75 = DIRECTION ( 'NONE',  ( 0.000000000000000000, -1.000000000000000000, -1.908156728842872817E-16 ) ) ;
#76 = CARTESIAN_POINT ( 'NONE',  ( 0.000000000000000000, 0.000000000000000000, 0.002000000000000000042 ) ) ;
#77 = APPROVAL_PERSON_ORGANIZATION ( #21, #106, #42 ) ;
#78 = FACE_OUTER_BOUND ( 'NONE', #188, .T. ) ;
#79 = CARTESIAN_POINT ( 'NONE',  ( 0.000000000000000000, 6.746552562643224528E-17, 0.002212654558397086912 ) ) ;
#80 = DIRECTION ( 'NONE',  ( 0.000000000000000000, -0.6916149180646035122, 0.7222664363726808423 ) ) ;
#81 = ADVANCED_FACE ( 'NONE', ( #31 ), #296, .T. ) ;
#82 = DIRECTION ( 'NONE',  ( 0.000000000000000000, -1.000000000000000000, -1.707404996040164512E-16 ) ) ;
#83 = CARTESIAN_POINT ( 'NONE',  ( 0.000000000000000000, -0.01269999999999999948, -0.001524676839899100122 ) ) ;
#84 = EDGE_CURVE ( 'NONE', #282, #299, #300, .T. ) ;
#85 = ADVANCED_FACE ( 'NONE', ( #259 ), #24, .T. ) ;
#86 = AXIS2_PLACEMENT_3D ( 'NONE', #158, #285, #126 ) ;
#87 = PERSON_AND_ORGANIZATION_ROLE ( 'design_supplier' ) ;
#88 = APPLICATION_CONTEXT ( 'configuration controlled 3d designs of mechanical parts and assemblies' ) ;
#89 = FACE_OUTER_BOUND ( 'NONE', #255, .T. ) ;
#90 =( LENGTH_UNIT ( ) NAMED_UNIT ( * ) SI_UNIT ( $, .METRE. ) );
#91 = ORIENTED_EDGE ( 'NONE', *, *, #93, .F. ) ;
#92 = PRODUCT ( 'TTN225635-E0W', 'TTN225635-E0W', '', ( #218 ) ) ;
#93 = EDGE_CURVE ( 'NONE', #138, #299, #247, .T. ) ;
#94 = EDGE_LOOP ( 'NONE', ( #292, #179, #6, #221 ) ) ;
#95 = DIRECTION ( 'NONE',  ( 1.000000000000000000, 0.000000000000000000, 0.000000000000000000 ) ) ;
#96 = DIRECTION ( 'NONE',  ( 0.000000000000000000, 1.836909530733887102E-16, -1.000000000000000000 ) ) ;
#97 = DIRECTION ( 'NONE',  ( 0.000000000000000000, -1.000000000000000000, -1.908156728842872817E-16 ) ) ;
#98 = CYLINDRICAL_SURFACE ( 'NONE', #237, 0.01269999999999999948 ) ;
#99 = EDGE_CURVE ( 'NONE', #3, #26, #273, .T. ) ;
#100 = DIRECTION ( 'NONE',  ( 0.000000000000000000, 1.836909530733738204E-16, -1.000000000000000000 ) ) ;
#101 = EDGE_LOOP ( 'NONE', ( #231, #2, #19 ) ) ;
#102 = AXIS2_PLACEMENT_3D ( 'NONE', #281, #256, #230 ) ;
#103 = DIRECTION ( 'NONE',  ( 0.000000000000000000, 0.000000000000000000, -1.000000000000000000 ) ) ;
#104 = ORIENTED_EDGE ( 'NONE', *, *, #84, .F. ) ;
#105 = CYLINDRICAL_SURFACE ( 'NONE', #317, 0.01269999999999999948 ) ;
#106 = APPROVAL ( #116, 'UNSPECIFIED' ) ;
#107 = CARTESIAN_POINT ( 'NONE',  ( 0.000000000000000000, 0.000000000000000000, 0.2910479999999999734 ) ) ;
#108 = ORIENTED_EDGE ( 'NONE', *, *, #241, .F. ) ;
#109 = AXIS2_PLACEMENT_3D ( 'NONE', #13, #262, #59 ) ;
#110 = APPLICATION_CONTEXT ( 'configuration controlled 3d designs of mechanical parts and assemblies' ) ;
#111 = APPROVAL_DATE_TIME ( #63, #115 ) ;
#112 = VECTOR ( 'NONE', #147, 1.000000000000000000 ) ;
#113 = APPLICATION_PROTOCOL_DEFINITION ( 'international standard', 'config_control_design', 1994, #88 ) ;
#114 = ORIENTED_EDGE ( 'NONE', *, *, #129, .F. ) ;
#115 = APPROVAL ( #198, 'UNSPECIFIED' ) ;
#116 = APPROVAL_STATUS ( 'not_yet_approved' ) ;
#117 = CIRCLE ( 'NONE', #178, 0.3674899999999999833 ) ;
#118 = PERSON_AND_ORGANIZATION ( #44, #122 ) ;
#119 = LINE ( 'NONE', #53, #55 ) ;
#120 = AXIS2_PLACEMENT_3D ( 'NONE', #107, #134, #36 ) ;
#121 = DATE_AND_TIME ( #195, #289 ) ;
#122 = ORGANIZATION ( 'UNSPECIFIED', 'UNSPECIFIED', '' ) ;
#123 = DIRECTION ( 'NONE',  ( 0.000000000000000000, 1.000000000000000000, 1.707404996040164512E-16 ) ) ;
#124 = DIRECTION ( 'NONE',  ( 0.000000000000000000, 1.836909530733738204E-16, -1.000000000000000000 ) ) ;
#125 = AXIS2_PLACEMENT_3D ( 'NONE', #288, #100, #75 ) ;
#126 = DIRECTION ( 'NONE',  ( 0.000000000000000000, -1.000000000000000000, -1.878145495644181086E-16 ) ) ;
#127 = PERSON_AND_ORGANIZATION ( #44, #122 ) ;
#128 = CARTESIAN_POINT ( 'NONE',  ( 0.000000000000000000, 0.000000000000000000, 0.3694899999999999851 ) ) ;
#129 = EDGE_CURVE ( 'NONE', #267, #26, #117, .T. ) ;
#130 = CARTESIAN_POINT ( 'NONE',  ( 0.000000000000000000, 0.000000000000000000, 0.3694899999999999851 ) ) ;
#131 = CC_DESIGN_APPROVAL ( #115, ( #65 ) ) ;
#132 = CARTESIAN_POINT ( 'NONE',  ( 0.000000000000000000, -0.01269999999999999948, -0.001524676839899099688 ) ) ;
#133 = CONICAL_SURFACE ( 'NONE', #72, 0.01269999999999999948, 0.7637225696757241611 ) ;
#134 = DIRECTION ( 'NONE',  ( -1.000000000000000000, 0.000000000000000000, -0.000000000000000000 ) ) ;
#135 = EDGE_CURVE ( 'NONE', #267, #3, #49, .T. ) ;
#136 = DIRECTION ( 'NONE',  ( 8.807921509367304096E-17, -0.7192213718681763623, -0.6947809858135571837 ) ) ;
#137 = EDGE_LOOP ( 'NONE', ( #308, #145, #236, #149 ) ) ;
#138 = VERTEX_POINT ( 'NONE', #150 ) ;
#139 = PERSON_AND_ORGANIZATION ( #44, #122 ) ;
#140 =( NAMED_UNIT ( * ) PLANE_ANGLE_UNIT ( ) SI_UNIT ( $, .RADIAN. ) );
#141 = APPROVAL_ROLE ( '' ) ;
#142 =( NAMED_UNIT ( * ) SI_UNIT ( $, .STERADIAN. ) SOLID_ANGLE_UNIT ( ) );
#143 = CIRCLE ( 'NONE', #120, 0.2930479999999999752 ) ;
#144 = PRODUCT_DEFINITION_SHAPE ( 'NONE', 'NONE',  #65 ) ;
#145 = ORIENTED_EDGE ( 'NONE', *, *, #168, .F. ) ;
#146 = AXIS2_PLACEMENT_3D ( 'NONE', #35, #124, #97 ) ;
#147 = DIRECTION ( 'NONE',  ( -0.000000000000000000, -1.836909530733565887E-16, 1.000000000000000000 ) ) ;
#148 = ORIENTED_EDGE ( 'NONE', *, *, #172, .T. ) ;
#149 = ORIENTED_EDGE ( 'NONE', *, *, #184, .F. ) ;
#150 = CARTESIAN_POINT ( 'NONE',  ( 1.555301434917138519E-18, 0.01269999999999999948, -0.001524676839899095351 ) ) ;
#151 = PERSON_AND_ORGANIZATION ( #44, #122 ) ;
#152 = VECTOR ( 'NONE', #136, 1.000000000000000000 ) ;
#153 = CC_DESIGN_PERSON_AND_ORGANIZATION_ASSIGNMENT ( #210, #319, ( #65 ) ) ;
#154 = VERTEX_POINT ( 'NONE', #182 ) ;
#155 = EDGE_CURVE ( 'NONE', #43, #206, #191, .T. ) ;
#156 = DIRECTION ( 'NONE',  ( -0.000000000000000000, -1.836909530733738204E-16, 1.000000000000000000 ) ) ;
#157 = COORDINATED_UNIVERSAL_TIME_OFFSET ( 5, 0, .BEHIND. ) ;
#158 = CARTESIAN_POINT ( 'NONE',  ( 0.000000000000000000, 6.474512479966519442E-19, -0.001524676839899097736 ) ) ;
#159 = EDGE_LOOP ( 'NONE', ( #50, #70, #18, #108 ) ) ;
#160 = EDGE_CURVE ( 'NONE', #206, #154, #200, .T. ) ;
#161 = DIRECTION ( 'NONE',  ( 0.000000000000000000, -1.000000000000000000, -1.707404996040164512E-16 ) ) ;
#162 = DIRECTION ( 'NONE',  ( -0.000000000000000000, -1.836909530733565887E-16, 1.000000000000000000 ) ) ;
#163 = ORIENTED_EDGE ( 'NONE', *, *, #184, .T. ) ;
#164 = DIRECTION ( 'NONE',  ( 0.000000000000000000, -1.000000000000000000, -1.894268216512579293E-16 ) ) ;
#165 = SECURITY_CLASSIFICATION ( '', '', #40 ) ;
#166 = ADVANCED_FACE ( 'NONE', ( #196 ), #291, .T. ) ;
#167 = AXIS2_PLACEMENT_3D ( 'NONE', #20, #17, #164 ) ;
#168 = EDGE_CURVE ( 'NONE', #154, #206, #52, .T. ) ;
#169 = PRODUCT_DEFINITION_FORMATION_WITH_SPECIFIED_SOURCE ( 'ANY', '', #92, .NOT_KNOWN. ) ;
#170 = PERSON_AND_ORGANIZATION_ROLE ( 'creator' ) ;
#171 = ORIENTED_EDGE ( 'NONE', *, *, #93, .T. ) ;
#172 = EDGE_CURVE ( 'NONE', #302, #138, #68, .T. ) ;
#173 = EDGE_LOOP ( 'NONE', ( #71, #37, #208 ) ) ;
#174 = CC_DESIGN_PERSON_AND_ORGANIZATION_ASSIGNMENT ( #9, #170, ( #169 ) ) ;
#175 = APPROVAL_DATE_TIME ( #293, #235 ) ;
#176 = SPHERICAL_SURFACE ( 'NONE', #197, 0.3674899999999999833 ) ;
#177 = CARTESIAN_POINT ( 'NONE',  ( 0.000000000000000000, -3.906271850735160314E-20, 0.002212654558397031401 ) ) ;
#178 = AXIS2_PLACEMENT_3D ( 'NONE', #130, #181, #311 ) ;
#179 = ORIENTED_EDGE ( 'NONE', *, *, #312, .T. ) ;
#180 = DIRECTION ( 'NONE',  ( 1.000000000000000000, 0.000000000000000000, 0.000000000000000000 ) ) ;
#181 = DIRECTION ( 'NONE',  ( -1.000000000000000000, 1.224646799147353207E-16, 2.249565377136128006E-32 ) ) ;
#182 = CARTESIAN_POINT ( 'NONE',  ( 0.000000000000000000, -0.01250025610272873476, -0.001733273139806841470 ) ) ;
#183 = CC_DESIGN_PERSON_AND_ORGANIZATION_ASSIGNMENT ( #127, #298, ( #92 ) ) ;
#184 = EDGE_CURVE ( 'NONE', #138, #302, #318, .T. ) ;
#185 = DIRECTION ( 'NONE',  ( 0.000000000000000000, -1.000000000000000000, -1.734714453434226303E-16 ) ) ;
#186 = CC_DESIGN_APPROVAL ( #106, ( #169 ) ) ;
#187 = DIRECTION ( 'NONE',  ( -0.000000000000000000, -1.836909530733565887E-16, 1.000000000000000000 ) ) ;
#188 = EDGE_LOOP ( 'NONE', ( #114, #272, #61 ) ) ;
#189 = EDGE_CURVE ( 'NONE', #206, #138, #239, .T. ) ;
#190 = CARTESIAN_POINT ( 'NONE',  ( 1.530816460927498661E-18, -0.01250006501460921605, 0.002212654558397029233 ) ) ;
#191 = CIRCLE ( 'NONE', #102, 0.2930479999999999752 ) ;
#192 = ADVANCED_FACE ( 'NONE', ( #325 ), #133, .T. ) ;
#193 = CARTESIAN_POINT ( 'NONE',  ( 0.000000000000000000, -0.01269999999999999948, 0.002019513709582141433 ) ) ;
#194 = DIRECTION ( 'NONE',  ( -0.000000000000000000, -1.836909530733565887E-16, 1.000000000000000000 ) ) ;
#195 = CALENDAR_DATE ( 2022, 12, 8 ) ;
#196 = FACE_OUTER_BOUND ( 'NONE', #94, .T. ) ;
#197 = AXIS2_PLACEMENT_3D ( 'NONE', #251, #205, #249 ) ;
#198 = APPROVAL_STATUS ( 'not_yet_approved' ) ;
#199 = LOCAL_TIME ( 11, 58, 41.00000000000000000, #41 ) ;
#200 = CIRCLE ( 'NONE', #125, 0.01250025610272877466 ) ;
#201 = DIRECTION ( 'NONE',  ( 0.000000000000000000, 1.836909530733887102E-16, -1.000000000000000000 ) ) ;
#202 = CC_DESIGN_PERSON_AND_ORGANIZATION_ASSIGNMENT ( #139, #64, ( #165 ) ) ;
#203 = UNCERTAINTY_MEASURE_WITH_UNIT (LENGTH_MEASURE( 1.000000000000000082E-05 ), #90, 'distance_accuracy_value', 'NONE');
#204 = LINE ( 'NONE', #190, #152 ) ;
#205 = DIRECTION ( 'NONE',  ( -1.000000000000000000, 0.000000000000000000, 0.000000000000000000 ) ) ;
#206 = VERTEX_POINT ( 'NONE', #10 ) ;
#207 = EDGE_CURVE ( 'NONE', #3, #299, #119, .T. ) ;
#208 = ORIENTED_EDGE ( 'NONE', *, *, #160, .T. ) ;
#209 = DIRECTION ( 'NONE',  ( 0.000000000000000000, 1.000000000000000000, 1.734714453434223838E-16 ) ) ;
#210 = PERSON_AND_ORGANIZATION ( #44, #122 ) ;
#211 = DIRECTION ( 'NONE',  ( 0.000000000000000000, -1.000000000000000000, -1.878145495644181086E-16 ) ) ;
#212 = COORDINATED_UNIVERSAL_TIME_OFFSET ( 5, 0, .BEHIND. ) ;
#213 = ORIENTED_EDGE ( 'NONE', *, *, #326, .F. ) ;
#214 = ADVANCED_FACE ( 'NONE', ( #78 ), #45, .F. ) ;
#215 = LOCAL_TIME ( 11, 58, 41.00000000000000000, #23 ) ;
#216 = DIRECTION ( 'NONE',  ( 0.000000000000000000, 0.000000000000000000, 1.000000000000000000 ) ) ;
#217 = AXIS2_PLACEMENT_3D ( 'NONE', #56, #216, #323 ) ;
#218 = MECHANICAL_CONTEXT ( 'NONE', #88, 'mechanical' ) ;
#219 = DATE_TIME_ROLE ( 'classification_date' ) ;
#220 = CC_DESIGN_DATE_AND_TIME_ASSIGNMENT ( #121, #219, ( #165 ) ) ;
#221 = ORIENTED_EDGE ( 'NONE', *, *, #207, .F. ) ;
#222 = EDGE_CURVE ( 'NONE', #26, #3, #5, .T. ) ;
#223 = APPROVAL_PERSON_ORGANIZATION ( #250, #115, #244 ) ;
#224 = CARTESIAN_POINT ( 'NONE',  ( 0.000000000000000000, 3.588625165641431535E-17, -0.002000000000000001776 ) ) ;
#225 = LINE ( 'NONE', #132, #310 ) ;
#226 = ORIENTED_EDGE ( 'NONE', *, *, #232, .T. ) ;
#227 = VECTOR ( 'NONE', #194, 1.000000000000000000 ) ;
#228 = DIRECTION ( 'NONE',  ( 0.000000000000000000, -1.000000000000000000, -1.878145495644181086E-16 ) ) ;
#229 = MANIFOLD_SOLID_BREP ( 'TTN225647-1-solid1', #324 ) ;
#230 = DIRECTION ( 'NONE',  ( 1.224646799147353207E-16, 1.000000000000000000, 0.000000000000000000 ) ) ;
#231 = ORIENTED_EDGE ( 'NONE', *, *, #135, .F. ) ;
#232 = EDGE_CURVE ( 'NONE', #43, #154, #143, .T. ) ;
#233 = CARTESIAN_POINT ( 'NONE',  ( 0.000000000000000000, 6.474512479966493442E-19, -0.001524676839899097303 ) ) ;
#234 = CALENDAR_DATE ( 2022, 12, 8 ) ;
#235 = APPROVAL ( #271, 'UNSPECIFIED' ) ;
#236 = ORIENTED_EDGE ( 'NONE', *, *, #241, .T. ) ;
#237 = AXIS2_PLACEMENT_3D ( 'NONE', #58, #162, #82 ) ;
#238 = CARTESIAN_POINT ( 'NONE',  ( 0.000000000000000000, 6.474512479966493442E-19, -0.001524676839899097303 ) ) ;
#239 = LINE ( 'NONE', #54, #322 ) ;
#240 = ADVANCED_FACE ( 'NONE', ( #245 ), #105, .T. ) ;
#241 = EDGE_CURVE ( 'NONE', #154, #302, #225, .T. ) ;
#242 = DIRECTION ( 'NONE',  ( -0.000000000000000000, -1.836909530733887102E-16, 1.000000000000000000 ) ) ;
#243 = APPROVAL_PERSON_ORGANIZATION ( #118, #235, #141 ) ;
#244 = APPROVAL_ROLE ( '' ) ;
#245 = FACE_OUTER_BOUND ( 'NONE', #7, .T. ) ;
#246 = DATE_TIME_ROLE ( 'creation_date' ) ;
#247 = LINE ( 'NONE', #1, #112 ) ;
#248 = PRODUCT_RELATED_PRODUCT_CATEGORY ( 'detail', '', ( #92 ) ) ;
#249 = DIRECTION ( 'NONE',  ( 0.000000000000000000, 1.000000000000000000, 1.510548619860617512E-16 ) ) ;
#250 = PERSON_AND_ORGANIZATION ( #44, #122 ) ;
#251 = CARTESIAN_POINT ( 'NONE',  ( 0.000000000000000000, 0.000000000000000000, 0.3694899999999999851 ) ) ;
#252 = LINE ( 'NONE', #295, #227 ) ;
#253 = DIRECTION ( 'NONE',  ( 0.000000000000000000, -1.000000000000000000, -1.734714453434226303E-16 ) ) ;
#254 = AXIS2_PLACEMENT_3D ( 'NONE', #303, #27, #47 ) ;
#255 = EDGE_LOOP ( 'NONE', ( #148, #171, #307, #213 ) ) ;
#256 = DIRECTION ( 'NONE',  ( 1.000000000000000000, -1.224646799147353207E-16, -2.249565377136128006E-32 ) ) ;
#257 = ADVANCED_FACE ( 'NONE', ( #89 ), #98, .T. ) ;
#258 = CALENDAR_DATE ( 2022, 12, 8 ) ;
#259 = FACE_OUTER_BOUND ( 'NONE', #57, .T. ) ;
#260 = DIRECTION ( 'NONE',  ( -0.000000000000000000, -1.836909530733887102E-16, 1.000000000000000000 ) ) ;
#261 = AXIS2_PLACEMENT_3D ( 'NONE', #313, #260, #253 ) ;
#262 = DIRECTION ( 'NONE',  ( -1.000000000000000000, 0.000000000000000000, 0.000000000000000000 ) ) ;
#263 = APPROVAL_DATE_TIME ( #315, #106 ) ;
#264 = SHAPE_DEFINITION_REPRESENTATION ( #144, #4 ) ;
#265 = CARTESIAN_POINT ( 'NONE',  ( 0.000000000000000000, 9.000686095586085383E-17, 0.002000000000000001776 ) ) ;
#266 = FACE_OUTER_BOUND ( 'NONE', #101, .T. ) ;
#267 = VERTEX_POINT ( 'NONE', #265 ) ;
#268 = ADVANCED_FACE ( 'NONE', ( #14 ), #38, .T. ) ;
#269 = CALENDAR_DATE ( 2022, 12, 8 ) ;
#270 = DIRECTION ( 'NONE',  ( 0.000000000000000000, -1.000000000000000000, -1.878145495644181086E-16 ) ) ;
#271 = APPROVAL_STATUS ( 'not_yet_approved' ) ;
#272 = ORIENTED_EDGE ( 'NONE', *, *, #135, .T. ) ;
#273 = CIRCLE ( 'NONE', #261, 0.01250006501460919871 ) ;
#274 = ORIENTED_EDGE ( 'NONE', *, *, #312, .F. ) ;
#275 = ORIENTED_EDGE ( 'NONE', *, *, #168, .T. ) ;
#276 = CALENDAR_DATE ( 2022, 12, 8 ) ;
#277 = CARTESIAN_POINT ( 'NONE',  ( 0.000000000000000000, 0.000000000000000000, 0.2910479999999999734 ) ) ;
#278 = AXIS2_PLACEMENT_3D ( 'NONE', #128, #180, #103 ) ;
#279 = COORDINATED_UNIVERSAL_TIME_OFFSET ( 5, 0, .BEHIND. ) ;
#280 = CONICAL_SURFACE ( 'NONE', #321, 0.01269999999999999948, 0.7637225696757241611 ) ;
#281 = CARTESIAN_POINT ( 'NONE',  ( 0.000000000000000000, 0.000000000000000000, 0.2910479999999999734 ) ) ;
#282 = VERTEX_POINT ( 'NONE', #193 ) ;
#283 = DIRECTION ( 'NONE',  ( 0.000000000000000000, 1.836909530733887102E-16, -1.000000000000000000 ) ) ;
#284 = CC_DESIGN_APPROVAL ( #235, ( #165 ) ) ;
#285 = DIRECTION ( 'NONE',  ( -0.000000000000000000, -1.836909530733738204E-16, 1.000000000000000000 ) ) ;
#286 = AXIS2_PLACEMENT_3D ( 'NONE', #51, #96, #123 ) ;
#287 = DIRECTION ( 'NONE',  ( 8.469839956503754659E-17, 0.6916149180646032901, 0.7222664363726810643 ) ) ;
#288 = CARTESIAN_POINT ( 'NONE',  ( 0.000000000000000000, 5.378127110508689993E-17, -0.001733273139806867924 ) ) ;
#289 = LOCAL_TIME ( 11, 58, 41.00000000000000000, #157 ) ;
#290 = DIRECTION ( 'NONE',  ( 0.000000000000000000, 0.7192213718681765844, -0.6947809858135569616 ) ) ;
#291 = CONICAL_SURFACE ( 'NONE', #62, 0.01250006501460921605, 0.8026809864835825481 ) ;
#292 = ORIENTED_EDGE ( 'NONE', *, *, #222, .F. ) ;
#293 = DATE_AND_TIME ( #269, #199 ) ;
#294 = DESIGN_CONTEXT ( 'detailed design', #110, 'design' ) ;
#295 = CARTESIAN_POINT ( 'NONE',  ( 0.000000000000000000, -0.01269999999999999948, 0.001999999999999997873 ) ) ;
#296 = SPHERICAL_SURFACE ( 'NONE', #304, 0.2930479999999999752 ) ;
#297 = AXIS2_PLACEMENT_3D ( 'NONE', #79, #242, #185 ) ;
#298 = PERSON_AND_ORGANIZATION_ROLE ( 'design_owner' ) ;
#299 = VERTEX_POINT ( 'NONE', #39 ) ;
#300 = CIRCLE ( 'NONE', #254, 0.01269999999999999948 ) ;
#301 = ORIENTED_EDGE ( 'NONE', *, *, #155, .F. ) ;
#302 = VERTEX_POINT ( 'NONE', #83 ) ;
#303 = CARTESIAN_POINT ( 'NONE',  ( 0.000000000000000000, -3.584491911140671847E-21, 0.002019513709582143601 ) ) ;
#304 = AXIS2_PLACEMENT_3D ( 'NONE', #277, #95, #305 ) ;
#305 = DIRECTION ( 'NONE',  ( 0.000000000000000000, -1.000000000000000000, -1.894268216512579293E-16 ) ) ;
#306 = FACE_OUTER_BOUND ( 'NONE', #137, .T. ) ;
#307 = ORIENTED_EDGE ( 'NONE', *, *, #34, .T. ) ;
#308 = ORIENTED_EDGE ( 'NONE', *, *, #189, .F. ) ;
#309 = DIRECTION ( 'NONE',  ( 0.000000000000000000, 1.000000000000000000, 1.734714453434223838E-16 ) ) ;
#310 = VECTOR ( 'NONE', #80, 1.000000000000000000 ) ;
#311 = DIRECTION ( 'NONE',  ( -1.224646799147353207E-16, -1.000000000000000000, 0.000000000000000000 ) ) ;
#312 = EDGE_CURVE ( 'NONE', #26, #282, #204, .T. ) ;
#313 = CARTESIAN_POINT ( 'NONE',  ( 0.000000000000000000, 6.746552562643224528E-17, 0.002212654558397086912 ) ) ;
#314 = ORIENTED_EDGE ( 'NONE', *, *, #99, .F. ) ;
#315 = DATE_AND_TIME ( #276, #30 ) ;
#316 = DIRECTION ( 'NONE',  ( -0.000000000000000000, -1.836909530733738204E-16, 1.000000000000000000 ) ) ;
#317 = AXIS2_PLACEMENT_3D ( 'NONE', #76, #187, #161 ) ;
#318 = CIRCLE ( 'NONE', #86, 0.01269999999999999948 ) ;
#319 = PERSON_AND_ORGANIZATION_ROLE ( 'creator' ) ;
#320 = ADVANCED_FACE ( 'NONE', ( #306 ), #280, .T. ) ;
#321 = AXIS2_PLACEMENT_3D ( 'NONE', #238, #15, #270 ) ;
#322 = VECTOR ( 'NONE', #287, 1.000000000000000000 ) ;
#323 = DIRECTION ( 'NONE',  ( 1.000000000000000000, 0.000000000000000000, 0.000000000000000000 ) ) ;
#324 = CLOSED_SHELL ( 'NONE', ( #166, #192, #257, #268, #60, #214, #81, #240, #320, #85 ) ) ;
#325 = FACE_OUTER_BOUND ( 'NONE', #159, .T. ) ;
#326 = EDGE_CURVE ( 'NONE', #302, #282, #252, .T. ) ;
#327 = EDGE_LOOP ( 'NONE', ( #301, #226, #275 ) ) ;
ENDSEC;
END-ISO-10303-21;
