ISO-10303-21;
HEADER;
FILE_DESCRIPTION (( 'STEP AP203' ),
    '1' );
FILE_NAME ('Web Model 62607_15798.step',
    '2020-11-03T22:03:43',
    ( '' ),
    ( '' ),
    'SwSTEP 2.0',
    'SolidWorks 2018',
    '' );
FILE_SCHEMA (( 'CONFIG_CONTROL_DESIGN' ));
ENDSEC;

DATA;
#1 = LINE ( 'NONE', #212, #130 ) ;
#2 = DATE_TIME_ROLE ( 'classification_date' ) ;
#3 = APPLICATION_PROTOCOL_DEFINITION ( 'international standard', 'config_control_design', 1994, #154 ) ;
#4 = VERTEX_POINT ( 'NONE', #145 ) ;
#5 = COORDINATED_UNIVERSAL_TIME_OFFSET ( 5, 0, .BEHIND. ) ;
#6 = LINE ( 'NONE', #230, #20 ) ;
#7 = DESIGN_CONTEXT ( 'detailed design', #178, 'design' ) ;
#8 = CC_DESIGN_PERSON_AND_ORGANIZATION_ASSIGNMENT ( #210, #40, ( #125 ) ) ;
#9 = ORIENTED_EDGE ( 'NONE', *, *, #118, .F. ) ;
#10 = APPROVAL_PERSON_ORGANIZATION ( #65, #193, #166 ) ;
#11 = DIRECTION ( 'NONE',  ( -0.0000000000000000000, 1.000000000000000000, -0.0000000000000000000 ) ) ;
#12 = SECURITY_CLASSIFICATION ( '', '', #135 ) ;
#13 = CARTESIAN_POINT ( 'NONE',  ( 37.50000000000000000, -37.50000000000000000, 4.000000000000000000 ) ) ;
#14 = CARTESIAN_POINT ( 'NONE',  ( 37.50000000000000000, 37.50000000000000000, 4.000000000000000000 ) ) ;
#15 = DIRECTION ( 'NONE',  ( 0.0000000000000000000, -1.000000000000000000, 0.0000000000000000000 ) ) ;
#16 = CARTESIAN_POINT ( 'NONE',  ( -37.50000000000000000, -37.50000000000000000, 4.000000000000000000 ) ) ;
#17 = VERTEX_POINT ( 'NONE', #30 ) ;
#18 = CALENDAR_DATE ( 2020, 3, 11 ) ;
#19 = ADVANCED_FACE ( 'NONE', ( #43 ), #176, .F. ) ;
#20 = VECTOR ( 'NONE', #174, 1000.000000000000000 ) ;
#21 = MECHANICAL_CONTEXT ( 'NONE', #154, 'mechanical' ) ;
#22 = PRODUCT_DEFINITION_SHAPE ( 'NONE', 'NONE',  #125 ) ;
#23 = EDGE_LOOP ( 'NONE', ( #119, #77, #33, #181 ) ) ;
#24 = APPROVAL_PERSON_ORGANIZATION ( #147, #78, #53 ) ;
#25 = VECTOR ( 'NONE', #15, 1000.000000000000000 ) ;
#26 = PERSON_AND_ORGANIZATION ( #47, #102 ) ;
#27 = ORIENTED_EDGE ( 'NONE', *, *, #99, .T. ) ;
#28 = LINE ( 'NONE', #124, #109 ) ;
#29 = PERSON_AND_ORGANIZATION ( #47, #102 ) ;
#30 = CARTESIAN_POINT ( 'NONE',  ( 37.50000000000000000, 37.50000000000000000, 0.0000000000000000000 ) ) ;
#31 = DIRECTION ( 'NONE',  ( 1.000000000000000000, 0.0000000000000000000, -0.0000000000000000000 ) ) ;
#32 = CARTESIAN_POINT ( 'NONE',  ( -37.50000000000000000, 37.50000000000000000, 4.000000000000000000 ) ) ;
#33 = ORIENTED_EDGE ( 'NONE', *, *, #182, .F. ) ;
#34 = COORDINATED_UNIVERSAL_TIME_OFFSET ( 5, 0, .BEHIND. ) ;
#35 = PERSON_AND_ORGANIZATION_ROLE ( 'classification_officer' ) ;
#36 = LINE ( 'NONE', #146, #94 ) ;
#37 = ORIENTED_EDGE ( 'NONE', *, *, #41, .F. ) ;
#38 = CALENDAR_DATE ( 2020, 3, 11 ) ;
#39 = DIRECTION ( 'NONE',  ( 0.0000000000000000000, 1.000000000000000000, 0.0000000000000000000 ) ) ;
#40 = PERSON_AND_ORGANIZATION_ROLE ( 'creator' ) ;
#41 = EDGE_CURVE ( 'NONE', #141, #133, #44, .T. ) ;
#42 = LOCAL_TIME ( 17, 3, 43.00000000000000000, #134 ) ;
#43 = FACE_OUTER_BOUND ( 'NONE', #207, .T. ) ;
#44 = LINE ( 'NONE', #13, #143 ) ;
#45 = EDGE_CURVE ( 'NONE', #133, #17, #180, .T. ) ;
#46 = FACE_OUTER_BOUND ( 'NONE', #106, .T. ) ;
#47 = PERSON ( 'UNSPECIFIED', 'UNSPECIFIED', 'UNSPECIFIED', ('UNSPECIFIED'), ('UNSPECIFIED'), ('UNSPECIFIED') ) ;
#48 = DIRECTION ( 'NONE',  ( 0.0000000000000000000, -0.0000000000000000000, -1.000000000000000000 ) ) ;
#49 = DIRECTION ( 'NONE',  ( -0.0000000000000000000, -0.0000000000000000000, -1.000000000000000000 ) ) ;
#50 = CARTESIAN_POINT ( 'NONE',  ( 37.50000000000000000, 37.50000000000000000, 4.000000000000000000 ) ) ;
#51 = DIRECTION ( 'NONE',  ( 0.0000000000000000000, 0.0000000000000000000, 1.000000000000000000 ) ) ;
#52 = DIRECTION ( 'NONE',  ( -1.000000000000000000, 0.0000000000000000000, 0.0000000000000000000 ) ) ;
#53 = APPROVAL_ROLE ( '' ) ;
#54 = PLANE ( 'NONE',  #84 ) ;
#55 = PRODUCT ( 'Web Model 62607_15798', 'Web Model 62607_15798', '', ( #21 ) ) ;
#56 = VERTEX_POINT ( 'NONE', #209 ) ;
#57 = EDGE_CURVE ( 'NONE', #156, #56, #184, .T. ) ;
#58 = LINE ( 'NONE', #108, #216 ) ;
#59 = SHAPE_DEFINITION_REPRESENTATION ( #22, #158 ) ;
#60 = CC_DESIGN_SECURITY_CLASSIFICATION ( #12, ( #171 ) ) ;
#61 = ORIENTED_EDGE ( 'NONE', *, *, #182, .T. ) ;
#62 = DATE_AND_TIME ( #115, #175 ) ;
#63 = UNCERTAINTY_MEASURE_WITH_UNIT (LENGTH_MEASURE( 1.000000000000000082E-05 ), #113, 'distance_accuracy_value', 'NONE');
#64 = EDGE_LOOP ( 'NONE', ( #27, #71, #61, #220 ) ) ;
#65 = PERSON_AND_ORGANIZATION ( #47, #102 ) ;
#66 = ADVANCED_FACE ( 'NONE', ( #179 ), #68, .F. ) ;
#67 = DIRECTION ( 'NONE',  ( -0.0000000000000000000, -0.0000000000000000000, -1.000000000000000000 ) ) ;
#68 = PLANE ( 'NONE',  #204 ) ;
#69 = CARTESIAN_POINT ( 'NONE',  ( -37.50000000000000000, -37.50000000000000000, 4.000000000000000000 ) ) ;
#70 = CALENDAR_DATE ( 2020, 3, 11 ) ;
#71 = ORIENTED_EDGE ( 'NONE', *, *, #120, .T. ) ;
#72 = FACE_OUTER_BOUND ( 'NONE', #23, .T. ) ;
#73 = AXIS2_PLACEMENT_3D ( 'NONE', #16, #39, #165 ) ;
#74 = DIRECTION ( 'NONE',  ( 1.000000000000000000, 0.0000000000000000000, 0.0000000000000000000 ) ) ;
#75 = DIRECTION ( 'NONE',  ( 0.0000000000000000000, 0.0000000000000000000, 1.000000000000000000 ) ) ;
#76 = AXIS2_PLACEMENT_3D ( 'NONE', #232, #31, #86 ) ;
#77 = ORIENTED_EDGE ( 'NONE', *, *, #128, .F. ) ;
#78 = APPROVAL ( #222, 'UNSPECIFIED' ) ;
#79 = MANIFOLD_SOLID_BREP ( 'Extrude1', #98 ) ;
#80 = CC_DESIGN_PERSON_AND_ORGANIZATION_ASSIGNMENT ( #152, #217, ( #55 ) ) ;
#81 = VECTOR ( 'NONE', #197, 1000.000000000000000 ) ;
#82 = ORIENTED_EDGE ( 'NONE', *, *, #136, .T. ) ;
#83 = ORIENTED_EDGE ( 'NONE', *, *, #88, .T. ) ;
#84 = AXIS2_PLACEMENT_3D ( 'NONE', #111, #52, #51 ) ;
#85 = APPROVAL_PERSON_ORGANIZATION ( #215, #151, #177 ) ;
#86 = DIRECTION ( 'NONE',  ( -0.0000000000000000000, 0.0000000000000000000, -1.000000000000000000 ) ) ;
#87 = DIRECTION ( 'NONE',  ( -0.0000000000000000000, -0.0000000000000000000, -1.000000000000000000 ) ) ;
#88 = EDGE_CURVE ( 'NONE', #17, #4, #36, .T. ) ;
#89 = ORIENTED_EDGE ( 'NONE', *, *, #118, .T. ) ;
#90 = CARTESIAN_POINT ( 'NONE',  ( -37.50000000000000000, 37.50000000000000000, 4.000000000000000000 ) ) ;
#91 = ADVANCED_FACE ( 'NONE', ( #203 ), #105, .F. ) ;
#92 = CC_DESIGN_PERSON_AND_ORGANIZATION_ASSIGNMENT ( #26, #112, ( #171 ) ) ;
#93 = CARTESIAN_POINT ( 'NONE',  ( -37.50000000000000000, 37.50000000000000000, 4.000000000000000000 ) ) ;
#94 = VECTOR ( 'NONE', #192, 1000.000000000000000 ) ;
#95 =( NAMED_UNIT ( * ) PLANE_ANGLE_UNIT ( ) SI_UNIT ( $, .RADIAN. ) );
#96 = DATE_TIME_ROLE ( 'creation_date' ) ;
#97 = EDGE_CURVE ( 'NONE', #223, #4, #28, .T. ) ;
#98 = CLOSED_SHELL ( 'NONE', ( #91, #195, #231, #19, #159, #66 ) ) ;
#99 = EDGE_CURVE ( 'NONE', #223, #156, #101, .T. ) ;
#100 = VECTOR ( 'NONE', #11, 1000.000000000000000 ) ;
#101 = LINE ( 'NONE', #123, #25 ) ;
#102 = ORGANIZATION ( 'UNSPECIFIED', 'UNSPECIFIED', '' ) ;
#103 = CC_DESIGN_PERSON_AND_ORGANIZATION_ASSIGNMENT ( #29, #35, ( #12 ) ) ;
#104 = CARTESIAN_POINT ( 'NONE',  ( 37.50000000000000000, -37.50000000000000000, 0.0000000000000000000 ) ) ;
#105 = PLANE ( 'NONE',  #76 ) ;
#106 = EDGE_LOOP ( 'NONE', ( #82, #37, #228, #168 ) ) ;
#107 = DIRECTION ( 'NONE',  ( -0.0000000000000000000, 0.0000000000000000000, 1.000000000000000000 ) ) ;
#108 = CARTESIAN_POINT ( 'NONE',  ( -37.50000000000000000, -37.50000000000000000, 0.0000000000000000000 ) ) ;
#109 = VECTOR ( 'NONE', #162, 1000.000000000000000 ) ;
#110 = VECTOR ( 'NONE', #87, 1000.000000000000000 ) ;
#111 = CARTESIAN_POINT ( 'NONE',  ( 37.50000000000000000, 37.50000000000000000, 4.000000000000000000 ) ) ;
#112 = PERSON_AND_ORGANIZATION_ROLE ( 'design_supplier' ) ;
#113 =( LENGTH_UNIT ( ) NAMED_UNIT ( * ) SI_UNIT ( .MILLI., .METRE. ) );
#114 = ORIENTED_EDGE ( 'NONE', *, *, #99, .F. ) ;
#115 = CALENDAR_DATE ( 2020, 3, 11 ) ;
#116 = ORIENTED_EDGE ( 'NONE', *, *, #57, .F. ) ;
#117 = PERSON_AND_ORGANIZATION ( #47, #102 ) ;
#118 = EDGE_CURVE ( 'NONE', #4, #56, #6, .T. ) ;
#119 = ORIENTED_EDGE ( 'NONE', *, *, #45, .T. ) ;
#120 = EDGE_CURVE ( 'NONE', #156, #141, #1, .T. ) ;
#121 = DIRECTION ( 'NONE',  ( 1.000000000000000000, 0.0000000000000000000, 0.0000000000000000000 ) ) ;
#122 = DATE_AND_TIME ( #38, #167 ) ;
#123 = CARTESIAN_POINT ( 'NONE',  ( -37.50000000000000000, 37.50000000000000000, 4.000000000000000000 ) ) ;
#124 = CARTESIAN_POINT ( 'NONE',  ( -37.50000000000000000, 37.50000000000000000, 4.000000000000000000 ) ) ;
#125 = PRODUCT_DEFINITION ( 'UNKNOWN', '', #171, #7 ) ;
#126 = PRODUCT_RELATED_PRODUCT_CATEGORY ( 'detail', '', ( #55 ) ) ;
#127 = CARTESIAN_POINT ( 'NONE',  ( -37.50000000000000000, -37.50000000000000000, 4.000000000000000000 ) ) ;
#128 = EDGE_CURVE ( 'NONE', #137, #17, #225, .T. ) ;
#129 = COORDINATED_UNIVERSAL_TIME_OFFSET ( 5, 0, .BEHIND. ) ;
#130 = VECTOR ( 'NONE', #149, 1000.000000000000000 ) ;
#131 = PLANE ( 'NONE',  #73 ) ;
#132 = APPROVAL_STATUS ( 'not_yet_approved' ) ;
#133 = VERTEX_POINT ( 'NONE', #104 ) ;
#134 = COORDINATED_UNIVERSAL_TIME_OFFSET ( 5, 0, .BEHIND. ) ;
#135 = SECURITY_CLASSIFICATION_LEVEL ( 'unclassified' ) ;
#136 = EDGE_CURVE ( 'NONE', #56, #133, #58, .T. ) ;
#137 = VERTEX_POINT ( 'NONE', #50 ) ;
#138 = APPROVAL_DATE_TIME ( #62, #193 ) ;
#139 = CC_DESIGN_APPROVAL ( #78, ( #12 ) ) ;
#140 = ORIENTED_EDGE ( 'NONE', *, *, #97, .F. ) ;
#141 = VERTEX_POINT ( 'NONE', #233 ) ;
#142 = ORIENTED_EDGE ( 'NONE', *, *, #88, .F. ) ;
#143 = VECTOR ( 'NONE', #49, 1000.000000000000000 ) ;
#144 = CARTESIAN_POINT ( 'NONE',  ( 37.50000000000000000, 37.50000000000000000, 4.000000000000000000 ) ) ;
#145 = CARTESIAN_POINT ( 'NONE',  ( -37.50000000000000000, 37.50000000000000000, 0.0000000000000000000 ) ) ;
#146 = CARTESIAN_POINT ( 'NONE',  ( -37.50000000000000000, 37.50000000000000000, 0.0000000000000000000 ) ) ;
#147 = PERSON_AND_ORGANIZATION ( #47, #102 ) ;
#148 = DIRECTION ( 'NONE',  ( -0.0000000000000000000, 0.0000000000000000000, 1.000000000000000000 ) ) ;
#149 = DIRECTION ( 'NONE',  ( 1.000000000000000000, 0.0000000000000000000, 0.0000000000000000000 ) ) ;
#150 = APPROVAL_STATUS ( 'not_yet_approved' ) ;
#151 = APPROVAL ( #132, 'UNSPECIFIED' ) ;
#152 = PERSON_AND_ORGANIZATION ( #47, #102 ) ;
#153 =( NAMED_UNIT ( * ) SI_UNIT ( $, .STERADIAN. ) SOLID_ANGLE_UNIT ( ) );
#154 = APPLICATION_CONTEXT ( 'configuration controlled 3d designs of mechanical parts and assemblies' ) ;
#155 = AXIS2_PLACEMENT_3D ( 'NONE', #69, #107, #211 ) ;
#156 = VERTEX_POINT ( 'NONE', #127 ) ;
#157 = VECTOR ( 'NONE', #194, 1000.000000000000000 ) ;
#158 = ADVANCED_BREP_SHAPE_REPRESENTATION ( 'Web Model 62607_15798', ( #79, #206 ), #224 ) ;
#159 = ADVANCED_FACE ( 'NONE', ( #187 ), #189, .T. ) ;
#160 = CARTESIAN_POINT ( 'NONE',  ( -37.50000000000000000, -37.50000000000000000, 0.0000000000000000000 ) ) ;
#161 = APPROVAL_DATE_TIME ( #122, #78 ) ;
#162 = DIRECTION ( 'NONE',  ( -0.0000000000000000000, -0.0000000000000000000, -1.000000000000000000 ) ) ;
#163 = CARTESIAN_POINT ( 'NONE',  ( 37.50000000000000000, 37.50000000000000000, 0.0000000000000000000 ) ) ;
#164 = DATE_AND_TIME ( #18, #42 ) ;
#165 = DIRECTION ( 'NONE',  ( 0.0000000000000000000, -0.0000000000000000000, 1.000000000000000000 ) ) ;
#166 = APPROVAL_ROLE ( '' ) ;
#167 = LOCAL_TIME ( 17, 3, 43.00000000000000000, #202 ) ;
#168 = ORIENTED_EDGE ( 'NONE', *, *, #57, .T. ) ;
#169 = DATE_AND_TIME ( #234, #221 ) ;
#170 = EDGE_CURVE ( 'NONE', #137, #223, #196, .T. ) ;
#171 = PRODUCT_DEFINITION_FORMATION_WITH_SPECIFIED_SOURCE ( 'ANY', '', #55, .NOT_KNOWN. ) ;
#172 = CC_DESIGN_PERSON_AND_ORGANIZATION_ASSIGNMENT ( #117, #219, ( #171 ) ) ;
#173 = CARTESIAN_POINT ( 'NONE',  ( -37.50000000000000000, -37.50000000000000000, 4.000000000000000000 ) ) ;
#174 = DIRECTION ( 'NONE',  ( 0.0000000000000000000, -1.000000000000000000, 0.0000000000000000000 ) ) ;
#175 = LOCAL_TIME ( 17, 3, 43.00000000000000000, #34 ) ;
#176 = PLANE ( 'NONE',  #227 ) ;
#177 = APPROVAL_ROLE ( '' ) ;
#178 = APPLICATION_CONTEXT ( 'configuration controlled 3d designs of mechanical parts and assemblies' ) ;
#179 = FACE_OUTER_BOUND ( 'NONE', #208, .T. ) ;
#180 = LINE ( 'NONE', #163, #100 ) ;
#181 = ORIENTED_EDGE ( 'NONE', *, *, #41, .T. ) ;
#182 = EDGE_CURVE ( 'NONE', #141, #137, #188, .T. ) ;
#183 = VECTOR ( 'NONE', #67, 1000.000000000000000 ) ;
#184 = LINE ( 'NONE', #173, #183 ) ;
#185 = CC_DESIGN_DATE_AND_TIME_ASSIGNMENT ( #169, #2, ( #12 ) ) ;
#186 = LOCAL_TIME ( 17, 3, 43.00000000000000000, #5 ) ;
#187 = FACE_OUTER_BOUND ( 'NONE', #64, .T. ) ;
#188 = LINE ( 'NONE', #14, #81 ) ;
#189 = PLANE ( 'NONE',  #155 ) ;
#190 = ORIENTED_EDGE ( 'NONE', *, *, #128, .T. ) ;
#191 = APPROVAL_DATE_TIME ( #200, #151 ) ;
#192 = DIRECTION ( 'NONE',  ( -1.000000000000000000, -0.0000000000000000000, -0.0000000000000000000 ) ) ;
#193 = APPROVAL ( #150, 'UNSPECIFIED' ) ;
#194 = DIRECTION ( 'NONE',  ( -1.000000000000000000, -0.0000000000000000000, -0.0000000000000000000 ) ) ;
#195 = ADVANCED_FACE ( 'NONE', ( #46 ), #131, .F. ) ;
#196 = LINE ( 'NONE', #90, #157 ) ;
#197 = DIRECTION ( 'NONE',  ( -0.0000000000000000000, 1.000000000000000000, -0.0000000000000000000 ) ) ;
#198 = CC_DESIGN_APPROVAL ( #193, ( #171 ) ) ;
#199 = ORIENTED_EDGE ( 'NONE', *, *, #97, .T. ) ;
#200 = DATE_AND_TIME ( #70, #186 ) ;
#201 = ORIENTED_EDGE ( 'NONE', *, *, #170, .F. ) ;
#202 = COORDINATED_UNIVERSAL_TIME_OFFSET ( 5, 0, .BEHIND. ) ;
#203 = FACE_OUTER_BOUND ( 'NONE', #235, .T. ) ;
#204 = AXIS2_PLACEMENT_3D ( 'NONE', #160, #148, #121 ) ;
#205 = CC_DESIGN_APPROVAL ( #151, ( #125 ) ) ;
#206 = AXIS2_PLACEMENT_3D ( 'NONE', #237, #75, #74 ) ;
#207 = EDGE_LOOP ( 'NONE', ( #83, #140, #201, #190 ) ) ;
#208 = EDGE_LOOP ( 'NONE', ( #9, #142, #226, #214 ) ) ;
#209 = CARTESIAN_POINT ( 'NONE',  ( -37.50000000000000000, -37.50000000000000000, 0.0000000000000000000 ) ) ;
#210 = PERSON_AND_ORGANIZATION ( #47, #102 ) ;
#211 = DIRECTION ( 'NONE',  ( 1.000000000000000000, 0.0000000000000000000, 0.0000000000000000000 ) ) ;
#212 = CARTESIAN_POINT ( 'NONE',  ( -37.50000000000000000, -37.50000000000000000, 4.000000000000000000 ) ) ;
#213 = CC_DESIGN_DATE_AND_TIME_ASSIGNMENT ( #164, #96, ( #125 ) ) ;
#214 = ORIENTED_EDGE ( 'NONE', *, *, #136, .F. ) ;
#215 = PERSON_AND_ORGANIZATION ( #47, #102 ) ;
#216 = VECTOR ( 'NONE', #236, 1000.000000000000000 ) ;
#217 = PERSON_AND_ORGANIZATION_ROLE ( 'design_owner' ) ;
#218 = APPLICATION_PROTOCOL_DEFINITION ( 'international standard', 'config_control_design', 1994, #178 ) ;
#219 = PERSON_AND_ORGANIZATION_ROLE ( 'creator' ) ;
#220 = ORIENTED_EDGE ( 'NONE', *, *, #170, .T. ) ;
#221 = LOCAL_TIME ( 17, 3, 43.00000000000000000, #129 ) ;
#222 = APPROVAL_STATUS ( 'not_yet_approved' ) ;
#223 = VERTEX_POINT ( 'NONE', #93 ) ;
#224 =( GEOMETRIC_REPRESENTATION_CONTEXT ( 3 ) GLOBAL_UNCERTAINTY_ASSIGNED_CONTEXT ( ( #63 ) ) GLOBAL_UNIT_ASSIGNED_CONTEXT ( ( #113, #95, #153 ) ) REPRESENTATION_CONTEXT ( 'NONE', 'WORKASPACE' ) );
#225 = LINE ( 'NONE', #144, #110 ) ;
#226 = ORIENTED_EDGE ( 'NONE', *, *, #45, .F. ) ;
#227 = AXIS2_PLACEMENT_3D ( 'NONE', #32, #229, #48 ) ;
#228 = ORIENTED_EDGE ( 'NONE', *, *, #120, .F. ) ;
#229 = DIRECTION ( 'NONE',  ( 0.0000000000000000000, -1.000000000000000000, 0.0000000000000000000 ) ) ;
#230 = CARTESIAN_POINT ( 'NONE',  ( -37.50000000000000000, 37.50000000000000000, 0.0000000000000000000 ) ) ;
#231 = ADVANCED_FACE ( 'NONE', ( #72 ), #54, .F. ) ;
#232 = CARTESIAN_POINT ( 'NONE',  ( -37.50000000000000000, 37.50000000000000000, 4.000000000000000000 ) ) ;
#233 = CARTESIAN_POINT ( 'NONE',  ( 37.50000000000000000, -37.50000000000000000, 4.000000000000000000 ) ) ;
#234 = CALENDAR_DATE ( 2020, 3, 11 ) ;
#235 = EDGE_LOOP ( 'NONE', ( #89, #116, #114, #199 ) ) ;
#236 = DIRECTION ( 'NONE',  ( 1.000000000000000000, 0.0000000000000000000, 0.0000000000000000000 ) ) ;
#237 = CARTESIAN_POINT ( 'NONE',  ( 0.0000000000000000000, 0.0000000000000000000, 0.0000000000000000000 ) ) ;
ENDSEC;
END-ISO-10303-21;
