ISO-10303-21;
HEADER;
FILE_DESCRIPTION (( 'STEP AP203' ),
    '1' );
FILE_NAME ('Web Model 14963_14976.step',
    '2020-07-27T18:40:42',
    ( '' ),
    ( '' ),
    'SwSTEP 2.0',
    'SolidWorks 2018',
    '' );
FILE_SCHEMA (( 'CONFIG_CONTROL_DESIGN' ));
ENDSEC;

DATA;
#1 = PERSON_AND_ORGANIZATION_ROLE ( 'design_supplier' ) ;
#2 = PERSON_AND_ORGANIZATION_ROLE ( 'creator' ) ;
#3 = CC_DESIGN_APPROVAL ( #46, ( #52 ) ) ;
#4 = FACE_OUTER_BOUND ( 'NONE', #104, .T. ) ;
#5 = APPROVAL_PERSON_ORGANIZATION ( #163, #153, #95 ) ;
#6 = FACE_OUTER_BOUND ( 'NONE', #154, .T. ) ;
#7 = CIRCLE ( 'NONE', #71, 12.50000000000000000 ) ;
#8 = CC_DESIGN_SECURITY_CLASSIFICATION ( #52, ( #74 ) ) ;
#9 = CALENDAR_DATE ( 2020, 27, 7 ) ;
#10 = DIRECTION ( 'NONE',  ( 1.000000000000000000, 0.0000000000000000000, 0.0000000000000000000 ) ) ;
#11 = DIRECTION ( 'NONE',  ( -1.000000000000000000, -0.0000000000000000000, -0.0000000000000000000 ) ) ;
#12 = ORIENTED_EDGE ( 'NONE', *, *, #31, .F. ) ;
#13 = COORDINATED_UNIVERSAL_TIME_OFFSET ( 5, 0, .BEHIND. ) ;
#14 = APPROVAL_STATUS ( 'not_yet_approved' ) ;
#15 = PERSON ( 'UNSPECIFIED', 'UNSPECIFIED', 'UNSPECIFIED', ('UNSPECIFIED'), ('UNSPECIFIED'), ('UNSPECIFIED') ) ;
#16 = APPLICATION_PROTOCOL_DEFINITION ( 'international standard', 'config_control_design', 1994, #142 ) ;
#17 = SECURITY_CLASSIFICATION_LEVEL ( 'unclassified' ) ;
#18 = MECHANICAL_CONTEXT ( 'NONE', #141, 'mechanical' ) ;
#19 = DIRECTION ( 'NONE',  ( 0.0000000000000000000, 0.0000000000000000000, -1.000000000000000000 ) ) ;
#20 = DIRECTION ( 'NONE',  ( 0.0000000000000000000, 0.0000000000000000000, 1.000000000000000000 ) ) ;
#21 = ORIENTED_EDGE ( 'NONE', *, *, #31, .T. ) ;
#22 = DIRECTION ( 'NONE',  ( 1.000000000000000000, 0.0000000000000000000, 0.0000000000000000000 ) ) ;
#23 = AXIS2_PLACEMENT_3D ( 'NONE', #66, #110, #84 ) ;
#24 = ADVANCED_BREP_SHAPE_REPRESENTATION ( 'Web Model 14963_14976', ( #77, #23 ), #129 ) ;
#25 = ORIENTED_EDGE ( 'NONE', *, *, #58, .F. ) ;
#26 = PRODUCT_DEFINITION_SHAPE ( 'NONE', 'NONE',  #174 ) ;
#27 = CARTESIAN_POINT ( 'NONE',  ( 1.500000000000000000, 0.0000000000000000000, 0.0000000000000000000 ) ) ;
#28 = PERSON_AND_ORGANIZATION ( #15, #60 ) ;
#29 = APPROVAL_STATUS ( 'not_yet_approved' ) ;
#30 = CC_DESIGN_DATE_AND_TIME_ASSIGNMENT ( #97, #94, ( #52 ) ) ;
#31 = EDGE_CURVE ( 'NONE', #47, #107, #120, .T. ) ;
#32 = PERSON_AND_ORGANIZATION ( #15, #60 ) ;
#33 = EDGE_CURVE ( 'NONE', #138, #107, #98, .T. ) ;
#34 = CALENDAR_DATE ( 2020, 27, 7 ) ;
#35 = PLANE ( 'NONE',  #92 ) ;
#36 = CARTESIAN_POINT ( 'NONE',  ( -1.500000000000000000, 0.0000000000000000000, 12.50000000000000000 ) ) ;
#37 = CARTESIAN_POINT ( 'NONE',  ( 1.500000000000000000, 0.0000000000000000000, 0.0000000000000000000 ) ) ;
#38 = ORIENTED_EDGE ( 'NONE', *, *, #170, .T. ) ;
#39 = EDGE_CURVE ( 'NONE', #107, #138, #166, .T. ) ;
#40 =( NAMED_UNIT ( * ) PLANE_ANGLE_UNIT ( ) SI_UNIT ( $, .RADIAN. ) );
#41 = APPROVAL_ROLE ( '' ) ;
#42 = FACE_OUTER_BOUND ( 'NONE', #86, .T. ) ;
#43 = APPLICATION_PROTOCOL_DEFINITION ( 'international standard', 'config_control_design', 1994, #141 ) ;
#44 = DATE_TIME_ROLE ( 'creation_date' ) ;
#45 = APPROVAL ( #29, 'UNSPECIFIED' ) ;
#46 = APPROVAL ( #14, 'UNSPECIFIED' ) ;
#47 = VERTEX_POINT ( 'NONE', #62 ) ;
#48 = CALENDAR_DATE ( 2020, 27, 7 ) ;
#49 = ORIENTED_EDGE ( 'NONE', *, *, #58, .T. ) ;
#50 = LOCAL_TIME ( 14, 40, 42.00000000000000000, #79 ) ;
#51 = PLANE ( 'NONE',  #131 ) ;
#52 = SECURITY_CLASSIFICATION ( '', '', #17 ) ;
#53 = CARTESIAN_POINT ( 'NONE',  ( -1.500000000000000000, 0.0000000000000000000, 0.0000000000000000000 ) ) ;
#54 = UNCERTAINTY_MEASURE_WITH_UNIT (LENGTH_MEASURE( 1.000000000000000082E-05 ), #96, 'distance_accuracy_value', 'NONE');
#55 =( NAMED_UNIT ( * ) SI_UNIT ( $, .STERADIAN. ) SOLID_ANGLE_UNIT ( ) );
#56 = COORDINATED_UNIVERSAL_TIME_OFFSET ( 5, 0, .BEHIND. ) ;
#57 = PERSON_AND_ORGANIZATION_ROLE ( 'classification_officer' ) ;
#58 = EDGE_CURVE ( 'NONE', #90, #47, #7, .T. ) ;
#59 = ORIENTED_EDGE ( 'NONE', *, *, #33, .T. ) ;
#60 = ORGANIZATION ( 'UNSPECIFIED', 'UNSPECIFIED', '' ) ;
#61 = DIRECTION ( 'NONE',  ( 1.000000000000000000, 0.0000000000000000000, 0.0000000000000000000 ) ) ;
#62 = CARTESIAN_POINT ( 'NONE',  ( 1.500000000000000000, 1.530808498934191521E-15, -12.50000000000000000 ) ) ;
#63 = DATE_AND_TIME ( #169, #102 ) ;
#64 = AXIS2_PLACEMENT_3D ( 'NONE', #106, #61, #19 ) ;
#65 = CARTESIAN_POINT ( 'NONE',  ( -1.500000000000000000, 1.530808498934191521E-15, -12.50000000000000000 ) ) ;
#66 = CARTESIAN_POINT ( 'NONE',  ( 0.0000000000000000000, 0.0000000000000000000, 0.0000000000000000000 ) ) ;
#67 = CC_DESIGN_PERSON_AND_ORGANIZATION_ASSIGNMENT ( #155, #85, ( #162 ) ) ;
#68 = ORIENTED_EDGE ( 'NONE', *, *, #170, .F. ) ;
#69 = DATE_AND_TIME ( #113, #136 ) ;
#70 = DIRECTION ( 'NONE',  ( 0.0000000000000000000, 0.0000000000000000000, -1.000000000000000000 ) ) ;
#71 = AXIS2_PLACEMENT_3D ( 'NONE', #124, #82, #108 ) ;
#72 = DATE_AND_TIME ( #34, #140 ) ;
#73 = PERSON_AND_ORGANIZATION_ROLE ( 'creator' ) ;
#74 = PRODUCT_DEFINITION_FORMATION_WITH_SPECIFIED_SOURCE ( 'ANY', '', #162, .NOT_KNOWN. ) ;
#75 = ORIENTED_EDGE ( 'NONE', *, *, #33, .F. ) ;
#76 = DESIGN_CONTEXT ( 'detailed design', #142, 'design' ) ;
#77 = MANIFOLD_SOLID_BREP ( 'Boss-Extrude1', #127 ) ;
#78 = APPROVAL_PERSON_ORGANIZATION ( #172, #45, #164 ) ;
#79 = COORDINATED_UNIVERSAL_TIME_OFFSET ( 5, 0, .BEHIND. ) ;
#80 = DIRECTION ( 'NONE',  ( 0.0000000000000000000, 0.0000000000000000000, -1.000000000000000000 ) ) ;
#81 = CYLINDRICAL_SURFACE ( 'NONE', #156, 12.50000000000000000 ) ;
#82 = DIRECTION ( 'NONE',  ( 1.000000000000000000, 0.0000000000000000000, 0.0000000000000000000 ) ) ;
#83 = VECTOR ( 'NONE', #134, 1000.000000000000000 ) ;
#84 = DIRECTION ( 'NONE',  ( 1.000000000000000000, 0.0000000000000000000, 0.0000000000000000000 ) ) ;
#85 = PERSON_AND_ORGANIZATION_ROLE ( 'design_owner' ) ;
#86 = EDGE_LOOP ( 'NONE', ( #49, #38 ) ) ;
#87 = PERSON_AND_ORGANIZATION ( #15, #60 ) ;
#88 = CC_DESIGN_APPROVAL ( #45, ( #74 ) ) ;
#89 = APPROVAL_DATE_TIME ( #105, #153 ) ;
#90 = VERTEX_POINT ( 'NONE', #148 ) ;
#91 = DIRECTION ( 'NONE',  ( -1.000000000000000000, -0.0000000000000000000, -0.0000000000000000000 ) ) ;
#92 = AXIS2_PLACEMENT_3D ( 'NONE', #37, #22, #150 ) ;
#93 = PERSON_AND_ORGANIZATION ( #15, #60 ) ;
#94 = DATE_TIME_ROLE ( 'classification_date' ) ;
#95 = APPROVAL_ROLE ( '' ) ;
#96 =( LENGTH_UNIT ( ) NAMED_UNIT ( * ) SI_UNIT ( .MILLI., .METRE. ) );
#97 = DATE_AND_TIME ( #48, #50 ) ;
#98 = CIRCLE ( 'NONE', #64, 12.50000000000000000 ) ;
#99 = VECTOR ( 'NONE', #91, 1000.000000000000000 ) ;
#100 = ADVANCED_FACE ( 'NONE', ( #4 ), #51, .F. ) ;
#101 = ADVANCED_FACE ( 'NONE', ( #151 ), #81, .T. ) ;
#102 = LOCAL_TIME ( 14, 40, 42.00000000000000000, #173 ) ;
#103 = EDGE_CURVE ( 'NONE', #90, #138, #171, .T. ) ;
#104 = EDGE_LOOP ( 'NONE', ( #75, #146 ) ) ;
#105 = DATE_AND_TIME ( #9, #152 ) ;
#106 = CARTESIAN_POINT ( 'NONE',  ( -1.500000000000000000, 0.0000000000000000000, 0.0000000000000000000 ) ) ;
#107 = VERTEX_POINT ( 'NONE', #65 ) ;
#108 = DIRECTION ( 'NONE',  ( 0.0000000000000000000, 0.0000000000000000000, -1.000000000000000000 ) ) ;
#109 = DIRECTION ( 'NONE',  ( 0.0000000000000000000, 0.0000000000000000000, 1.000000000000000000 ) ) ;
#110 = DIRECTION ( 'NONE',  ( 0.0000000000000000000, 0.0000000000000000000, 1.000000000000000000 ) ) ;
#111 = CC_DESIGN_PERSON_AND_ORGANIZATION_ASSIGNMENT ( #32, #1, ( #74 ) ) ;
#112 = ORIENTED_EDGE ( 'NONE', *, *, #39, .T. ) ;
#113 = CALENDAR_DATE ( 2020, 27, 7 ) ;
#114 = DIRECTION ( 'NONE',  ( 1.000000000000000000, 0.0000000000000000000, 0.0000000000000000000 ) ) ;
#115 = COORDINATED_UNIVERSAL_TIME_OFFSET ( 5, 0, .BEHIND. ) ;
#116 = PRODUCT_RELATED_PRODUCT_CATEGORY ( 'detail', '', ( #162 ) ) ;
#117 = ADVANCED_FACE ( 'NONE', ( #6 ), #145, .T. ) ;
#118 = AXIS2_PLACEMENT_3D ( 'NONE', #27, #114, #70 ) ;
#119 = CIRCLE ( 'NONE', #118, 12.50000000000000000 ) ;
#120 = LINE ( 'NONE', #147, #83 ) ;
#121 = APPROVAL_DATE_TIME ( #72, #45 ) ;
#122 = DIRECTION ( 'NONE',  ( 1.000000000000000000, 0.0000000000000000000, 0.0000000000000000000 ) ) ;
#123 = CC_DESIGN_DATE_AND_TIME_ASSIGNMENT ( #69, #44, ( #174 ) ) ;
#124 = CARTESIAN_POINT ( 'NONE',  ( 1.500000000000000000, 0.0000000000000000000, 0.0000000000000000000 ) ) ;
#125 = CARTESIAN_POINT ( 'NONE',  ( 1.500000000000000000, 0.0000000000000000000, 12.50000000000000000 ) ) ;
#126 = AXIS2_PLACEMENT_3D ( 'NONE', #53, #10, #80 ) ;
#127 = CLOSED_SHELL ( 'NONE', ( #101, #117, #130, #100 ) ) ;
#128 = PERSON_AND_ORGANIZATION ( #15, #60 ) ;
#129 =( GEOMETRIC_REPRESENTATION_CONTEXT ( 3 ) GLOBAL_UNCERTAINTY_ASSIGNED_CONTEXT ( ( #54 ) ) GLOBAL_UNIT_ASSIGNED_CONTEXT ( ( #96, #40, #55 ) ) REPRESENTATION_CONTEXT ( 'NONE', 'WORKASPACE' ) );
#130 = ADVANCED_FACE ( 'NONE', ( #42 ), #35, .T. ) ;
#131 = AXIS2_PLACEMENT_3D ( 'NONE', #158, #122, #157 ) ;
#132 = CC_DESIGN_APPROVAL ( #153, ( #174 ) ) ;
#133 = ORIENTED_EDGE ( 'NONE', *, *, #103, .T. ) ;
#134 = DIRECTION ( 'NONE',  ( -1.000000000000000000, -0.0000000000000000000, -0.0000000000000000000 ) ) ;
#135 = ORIENTED_EDGE ( 'NONE', *, *, #103, .F. ) ;
#136 = LOCAL_TIME ( 14, 40, 42.00000000000000000, #56 ) ;
#137 = APPROVAL_DATE_TIME ( #63, #46 ) ;
#138 = VERTEX_POINT ( 'NONE', #36 ) ;
#139 = CARTESIAN_POINT ( 'NONE',  ( 1.500000000000000000, 0.0000000000000000000, 0.0000000000000000000 ) ) ;
#140 = LOCAL_TIME ( 14, 40, 42.00000000000000000, #13 ) ;
#141 = APPLICATION_CONTEXT ( 'configuration controlled 3d designs of mechanical parts and assemblies' ) ;
#142 = APPLICATION_CONTEXT ( 'configuration controlled 3d designs of mechanical parts and assemblies' ) ;
#143 = APPROVAL_PERSON_ORGANIZATION ( #28, #46, #41 ) ;
#144 = EDGE_LOOP ( 'NONE', ( #68, #21, #112, #135 ) ) ;
#145 = CYLINDRICAL_SURFACE ( 'NONE', #168, 12.50000000000000000 ) ;
#146 = ORIENTED_EDGE ( 'NONE', *, *, #39, .F. ) ;
#147 = CARTESIAN_POINT ( 'NONE',  ( 1.500000000000000000, 1.530808498934191521E-15, -12.50000000000000000 ) ) ;
#148 = CARTESIAN_POINT ( 'NONE',  ( 1.500000000000000000, 0.0000000000000000000, 12.50000000000000000 ) ) ;
#149 = SHAPE_DEFINITION_REPRESENTATION ( #26, #24 ) ;
#150 = DIRECTION ( 'NONE',  ( 0.0000000000000000000, 0.0000000000000000000, -1.000000000000000000 ) ) ;
#151 = FACE_OUTER_BOUND ( 'NONE', #144, .T. ) ;
#152 = LOCAL_TIME ( 14, 40, 42.00000000000000000, #115 ) ;
#153 = APPROVAL ( #161, 'UNSPECIFIED' ) ;
#154 = EDGE_LOOP ( 'NONE', ( #12, #25, #133, #59 ) ) ;
#155 = PERSON_AND_ORGANIZATION ( #15, #60 ) ;
#156 = AXIS2_PLACEMENT_3D ( 'NONE', #139, #159, #20 ) ;
#157 = DIRECTION ( 'NONE',  ( 0.0000000000000000000, 0.0000000000000000000, -1.000000000000000000 ) ) ;
#158 = CARTESIAN_POINT ( 'NONE',  ( -1.500000000000000000, 0.0000000000000000000, 0.0000000000000000000 ) ) ;
#159 = DIRECTION ( 'NONE',  ( -1.000000000000000000, -0.0000000000000000000, -0.0000000000000000000 ) ) ;
#160 = CC_DESIGN_PERSON_AND_ORGANIZATION_ASSIGNMENT ( #128, #2, ( #74 ) ) ;
#161 = APPROVAL_STATUS ( 'not_yet_approved' ) ;
#162 = PRODUCT ( 'Web Model 14963_14976', 'Web Model 14963_14976', '', ( #18 ) ) ;
#163 = PERSON_AND_ORGANIZATION ( #15, #60 ) ;
#164 = APPROVAL_ROLE ( '' ) ;
#165 = CC_DESIGN_PERSON_AND_ORGANIZATION_ASSIGNMENT ( #93, #73, ( #174 ) ) ;
#166 = CIRCLE ( 'NONE', #126, 12.50000000000000000 ) ;
#167 = CC_DESIGN_PERSON_AND_ORGANIZATION_ASSIGNMENT ( #87, #57, ( #52 ) ) ;
#168 = AXIS2_PLACEMENT_3D ( 'NONE', #175, #11, #109 ) ;
#169 = CALENDAR_DATE ( 2020, 27, 7 ) ;
#170 = EDGE_CURVE ( 'NONE', #47, #90, #119, .T. ) ;
#171 = LINE ( 'NONE', #125, #99 ) ;
#172 = PERSON_AND_ORGANIZATION ( #15, #60 ) ;
#173 = COORDINATED_UNIVERSAL_TIME_OFFSET ( 5, 0, .BEHIND. ) ;
#174 = PRODUCT_DEFINITION ( 'UNKNOWN', '', #74, #76 ) ;
#175 = CARTESIAN_POINT ( 'NONE',  ( 1.500000000000000000, 0.0000000000000000000, 0.0000000000000000000 ) ) ;
ENDSEC;
END-ISO-10303-21;
