ISO-10303-21;
HEADER;
FILE_DESCRIPTION (( 'STEP AP203' ),
    '1' );
FILE_NAME ('Web Model 39399_39438.step',
    '2018-10-05T20:52:02',
    ( '' ),
    ( '' ),
    'SwSTEP 2.0',
    'SolidWorks 2016',
    '' );
FILE_SCHEMA (( 'CONFIG_CONTROL_DESIGN' ));
ENDSEC;

DATA;
#1 = PRODUCT ( 'Web Model 39399_39438', 'Web Model 39399_39438', '', ( #168 ) ) ;
#2 = PERSON_AND_ORGANIZATION ( #24, #121 ) ;
#3 = PLANE ( 'NONE',  #163 ) ;
#4 = APPLICATION_CONTEXT ( 'configuration controlled 3d designs of mechanical parts and assemblies' ) ;
#5 = DIRECTION ( 'NONE',  ( 0.0000000000000000000, 0.0000000000000000000, 1.000000000000000000 ) ) ;
#6 = ORIENTED_EDGE ( 'NONE', *, *, #51, .F. ) ;
#7 =( NAMED_UNIT ( * ) PLANE_ANGLE_UNIT ( ) SI_UNIT ( $, .RADIAN. ) );
#8 = DATE_AND_TIME ( #73, #63 ) ;
#9 = PERSON_AND_ORGANIZATION ( #24, #121 ) ;
#10 = LOCAL_TIME ( 16, 52, 2.000000000000000000, #152 ) ;
#11 = APPROVAL ( #16, 'UNSPECIFIED' ) ;
#12 = DATE_AND_TIME ( #56, #10 ) ;
#13 = CYLINDRICAL_SURFACE ( 'NONE', #65, 25.00000000000000000 ) ;
#14 = CIRCLE ( 'NONE', #61, 25.00000000000000000 ) ;
#15 = APPROVAL_DATE_TIME ( #35, #21 ) ;
#16 = APPROVAL_STATUS ( 'not_yet_approved' ) ;
#17 = DIRECTION ( 'NONE',  ( -0.0000000000000000000, -0.0000000000000000000, -1.000000000000000000 ) ) ;
#18 =( NAMED_UNIT ( * ) SI_UNIT ( $, .STERADIAN. ) SOLID_ANGLE_UNIT ( ) );
#19 = CIRCLE ( 'NONE', #74, 25.00000000000000000 ) ;
#20 = CC_DESIGN_APPROVAL ( #11, ( #172 ) ) ;
#21 = APPROVAL ( #55, 'UNSPECIFIED' ) ;
#22 = ORIENTED_EDGE ( 'NONE', *, *, #34, .F. ) ;
#23 = EDGE_CURVE ( 'NONE', #25, #90, #14, .T. ) ;
#24 = PERSON ( 'UNSPECIFIED', 'UNSPECIFIED', 'UNSPECIFIED', ('UNSPECIFIED'), ('UNSPECIFIED'), ('UNSPECIFIED') ) ;
#25 = VERTEX_POINT ( 'NONE', #27 ) ;
#26 = APPROVAL_PERSON_ORGANIZATION ( #110, #87, #140 ) ;
#27 = CARTESIAN_POINT ( 'NONE',  ( 25.00000000000000000, 3.061616997868383000E-015, 2.500000000000000000 ) ) ;
#28 = CC_DESIGN_PERSON_AND_ORGANIZATION_ASSIGNMENT ( #125, #43, ( #172 ) ) ;
#29 = ORIENTED_EDGE ( 'NONE', *, *, #54, .F. ) ;
#30 = DIRECTION ( 'NONE',  ( 1.000000000000000000, 0.0000000000000000000, 0.0000000000000000000 ) ) ;
#31 = DIRECTION ( 'NONE',  ( 1.000000000000000000, 0.0000000000000000000, 0.0000000000000000000 ) ) ;
#32 = CARTESIAN_POINT ( 'NONE',  ( 0.0000000000000000000, 0.0000000000000000000, -2.500000000000000000 ) ) ;
#33 = PERSON_AND_ORGANIZATION_ROLE ( 'design_supplier' ) ;
#34 = EDGE_CURVE ( 'NONE', #48, #62, #105, .T. ) ;
#35 = DATE_AND_TIME ( #70, #60 ) ;
#36 = ADVANCED_FACE ( 'NONE', ( #85 ), #81, .F. ) ;
#37 = CC_DESIGN_DATE_AND_TIME_ASSIGNMENT ( #75, #135, ( #172 ) ) ;
#38 = ORIENTED_EDGE ( 'NONE', *, *, #138, .T. ) ;
#39 = DIRECTION ( 'NONE',  ( 0.0000000000000000000, 0.0000000000000000000, 1.000000000000000000 ) ) ;
#40 = PERSON_AND_ORGANIZATION ( #24, #121 ) ;
#41 = DIRECTION ( 'NONE',  ( 0.0000000000000000000, 0.0000000000000000000, 1.000000000000000000 ) ) ;
#42 = CALENDAR_DATE ( 2018, 5, 10 ) ;
#43 = PERSON_AND_ORGANIZATION_ROLE ( 'creator' ) ;
#44 = EDGE_LOOP ( 'NONE', ( #108, #38, #112, #29 ) ) ;
#45 = DIRECTION ( 'NONE',  ( 1.000000000000000000, 0.0000000000000000000, -0.0000000000000000000 ) ) ;
#46 = CARTESIAN_POINT ( 'NONE',  ( 0.0000000000000000000, 0.0000000000000000000, 2.500000000000000000 ) ) ;
#47 = DESIGN_CONTEXT ( 'detailed design', #4, 'design' ) ;
#48 = VERTEX_POINT ( 'NONE', #91 ) ;
#49 = APPROVAL_STATUS ( 'not_yet_approved' ) ;
#50 = PERSON_AND_ORGANIZATION ( #24, #121 ) ;
#51 = EDGE_CURVE ( 'NONE', #62, #48, #133, .T. ) ;
#52 = AXIS2_PLACEMENT_3D ( 'NONE', #83, #106, #30 ) ;
#53 = ORIENTED_EDGE ( 'NONE', *, *, #54, .T. ) ;
#54 = EDGE_CURVE ( 'NONE', #90, #62, #89, .T. ) ;
#55 = APPROVAL_STATUS ( 'not_yet_approved' ) ;
#56 = CALENDAR_DATE ( 2018, 5, 10 ) ;
#57 = CARTESIAN_POINT ( 'NONE',  ( 0.0000000000000000000, 0.0000000000000000000, 2.500000000000000000 ) ) ;
#58 = ADVANCED_BREP_SHAPE_REPRESENTATION ( 'Web Model 39399_39438', ( #88, #52 ), #103 ) ;
#59 = FACE_OUTER_BOUND ( 'NONE', #101, .T. ) ;
#60 = LOCAL_TIME ( 16, 52, 2.000000000000000000, #123 ) ;
#61 = AXIS2_PLACEMENT_3D ( 'NONE', #114, #151, #164 ) ;
#62 = VERTEX_POINT ( 'NONE', #66 ) ;
#63 = LOCAL_TIME ( 16, 52, 2.000000000000000000, #78 ) ;
#64 = ORIENTED_EDGE ( 'NONE', *, *, #138, .F. ) ;
#65 = AXIS2_PLACEMENT_3D ( 'NONE', #137, #154, #119 ) ;
#66 = CARTESIAN_POINT ( 'NONE',  ( -25.00000000000000000, 0.0000000000000000000, -2.500000000000000000 ) ) ;
#67 = CC_DESIGN_SECURITY_CLASSIFICATION ( #161, ( #115 ) ) ;
#68 = COORDINATED_UNIVERSAL_TIME_OFFSET ( 5, 0, .BEHIND. ) ;
#69 = CARTESIAN_POINT ( 'NONE',  ( 0.0000000000000000000, 0.0000000000000000000, -2.500000000000000000 ) ) ;
#70 = CALENDAR_DATE ( 2018, 5, 10 ) ;
#71 = CARTESIAN_POINT ( 'NONE',  ( 0.0000000000000000000, 0.0000000000000000000, 2.500000000000000000 ) ) ;
#72 = DIRECTION ( 'NONE',  ( 1.000000000000000000, 0.0000000000000000000, 0.0000000000000000000 ) ) ;
#73 = CALENDAR_DATE ( 2018, 5, 10 ) ;
#74 = AXIS2_PLACEMENT_3D ( 'NONE', #46, #155, #72 ) ;
#75 = DATE_AND_TIME ( #173, #93 ) ;
#76 = ADVANCED_FACE ( 'NONE', ( #171 ), #3, .T. ) ;
#77 = EDGE_LOOP ( 'NONE', ( #6, #22 ) ) ;
#78 = COORDINATED_UNIVERSAL_TIME_OFFSET ( 5, 0, .BEHIND. ) ;
#79 = EDGE_LOOP ( 'NONE', ( #158, #128 ) ) ;
#80 = CC_DESIGN_PERSON_AND_ORGANIZATION_ASSIGNMENT ( #50, #109, ( #161 ) ) ;
#81 = PLANE ( 'NONE',  #129 ) ;
#82 = DATE_AND_TIME ( #42, #166 ) ;
#83 = CARTESIAN_POINT ( 'NONE',  ( 0.0000000000000000000, 0.0000000000000000000, 0.0000000000000000000 ) ) ;
#84 = PERSON_AND_ORGANIZATION_ROLE ( 'design_owner' ) ;
#85 = FACE_OUTER_BOUND ( 'NONE', #77, .T. ) ;
#86 = CLOSED_SHELL ( 'NONE', ( #144, #159, #76, #36 ) ) ;
#87 = APPROVAL ( #49, 'UNSPECIFIED' ) ;
#88 = MANIFOLD_SOLID_BREP ( 'Boss-Extrude1', #86 ) ;
#89 = LINE ( 'NONE', #96, #175 ) ;
#90 = VERTEX_POINT ( 'NONE', #148 ) ;
#91 = CARTESIAN_POINT ( 'NONE',  ( 25.00000000000000000, 3.061616997868383000E-015, -2.500000000000000000 ) ) ;
#92 = CYLINDRICAL_SURFACE ( 'NONE', #149, 25.00000000000000000 ) ;
#93 = LOCAL_TIME ( 16, 52, 2.000000000000000000, #68 ) ;
#94 = UNCERTAINTY_MEASURE_WITH_UNIT (LENGTH_MEASURE( 1.000000000000000100E-005 ), #170, 'distance_accuracy_value', 'NONE');
#95 = DIRECTION ( 'NONE',  ( 0.0000000000000000000, 0.0000000000000000000, 1.000000000000000000 ) ) ;
#96 = CARTESIAN_POINT ( 'NONE',  ( -25.00000000000000000, 0.0000000000000000000, 2.500000000000000000 ) ) ;
#97 = ORIENTED_EDGE ( 'NONE', *, *, #51, .T. ) ;
#98 = EDGE_CURVE ( 'NONE', #90, #25, #19, .T. ) ;
#99 = APPLICATION_PROTOCOL_DEFINITION ( 'international standard', 'config_control_design', 1994, #4 ) ;
#100 = DIRECTION ( 'NONE',  ( -0.0000000000000000000, -0.0000000000000000000, -1.000000000000000000 ) ) ;
#101 = EDGE_LOOP ( 'NONE', ( #64, #143, #53, #97 ) ) ;
#102 = PRODUCT_RELATED_PRODUCT_CATEGORY ( 'detail', '', ( #1 ) ) ;
#103 =( GEOMETRIC_REPRESENTATION_CONTEXT ( 3 ) GLOBAL_UNCERTAINTY_ASSIGNED_CONTEXT ( ( #94 ) ) GLOBAL_UNIT_ASSIGNED_CONTEXT ( ( #170, #7, #18 ) ) REPRESENTATION_CONTEXT ( 'NONE', 'WORKASPACE' ) );
#104 = AXIS2_PLACEMENT_3D ( 'NONE', #69, #39, #132 ) ;
#105 = CIRCLE ( 'NONE', #104, 25.00000000000000000 ) ;
#106 = DIRECTION ( 'NONE',  ( 0.0000000000000000000, 0.0000000000000000000, 1.000000000000000000 ) ) ;
#107 = APPROVAL_ROLE ( '' ) ;
#108 = ORIENTED_EDGE ( 'NONE', *, *, #23, .F. ) ;
#109 = PERSON_AND_ORGANIZATION_ROLE ( 'classification_officer' ) ;
#110 = PERSON_AND_ORGANIZATION ( #24, #121 ) ;
#111 = APPROVAL_DATE_TIME ( #82, #11 ) ;
#112 = ORIENTED_EDGE ( 'NONE', *, *, #34, .T. ) ;
#113 = CARTESIAN_POINT ( 'NONE',  ( 0.0000000000000000000, 0.0000000000000000000, -2.500000000000000000 ) ) ;
#114 = CARTESIAN_POINT ( 'NONE',  ( 0.0000000000000000000, 0.0000000000000000000, 2.500000000000000000 ) ) ;
#115 = PRODUCT_DEFINITION_FORMATION_WITH_SPECIFIED_SOURCE ( 'ANY', '', #1, .NOT_KNOWN. ) ;
#116 = APPLICATION_CONTEXT ( 'configuration controlled 3d designs of mechanical parts and assemblies' ) ;
#117 = SHAPE_DEFINITION_REPRESENTATION ( #141, #58 ) ;
#118 = DIRECTION ( 'NONE',  ( -0.0000000000000000000, -0.0000000000000000000, -1.000000000000000000 ) ) ;
#119 = DIRECTION ( 'NONE',  ( -1.000000000000000000, 0.0000000000000000000, 0.0000000000000000000 ) ) ;
#120 = CARTESIAN_POINT ( 'NONE',  ( 25.00000000000000000, 3.061616997868383000E-015, 2.500000000000000000 ) ) ;
#121 = ORGANIZATION ( 'UNSPECIFIED', 'UNSPECIFIED', '' ) ;
#122 = SECURITY_CLASSIFICATION_LEVEL ( 'unclassified' ) ;
#123 = COORDINATED_UNIVERSAL_TIME_OFFSET ( 5, 0, .BEHIND. ) ;
#124 = DATE_TIME_ROLE ( 'classification_date' ) ;
#125 = PERSON_AND_ORGANIZATION ( #24, #121 ) ;
#126 = VECTOR ( 'NONE', #118, 1000.000000000000000 ) ;
#127 = APPROVAL_PERSON_ORGANIZATION ( #130, #21, #156 ) ;
#128 = ORIENTED_EDGE ( 'NONE', *, *, #23, .T. ) ;
#129 = AXIS2_PLACEMENT_3D ( 'NONE', #113, #95, #167 ) ;
#130 = PERSON_AND_ORGANIZATION ( #24, #121 ) ;
#131 = CC_DESIGN_APPROVAL ( #21, ( #115 ) ) ;
#132 = DIRECTION ( 'NONE',  ( 1.000000000000000000, 0.0000000000000000000, 0.0000000000000000000 ) ) ;
#133 = CIRCLE ( 'NONE', #142, 25.00000000000000000 ) ;
#134 = APPLICATION_PROTOCOL_DEFINITION ( 'international standard', 'config_control_design', 1994, #116 ) ;
#135 = DATE_TIME_ROLE ( 'creation_date' ) ;
#136 = LINE ( 'NONE', #120, #126 ) ;
#137 = CARTESIAN_POINT ( 'NONE',  ( 0.0000000000000000000, 0.0000000000000000000, 2.500000000000000000 ) ) ;
#138 = EDGE_CURVE ( 'NONE', #25, #48, #136, .T. ) ;
#139 = CC_DESIGN_PERSON_AND_ORGANIZATION_ASSIGNMENT ( #2, #33, ( #115 ) ) ;
#140 = APPROVAL_ROLE ( '' ) ;
#141 = PRODUCT_DEFINITION_SHAPE ( 'NONE', 'NONE',  #172 ) ;
#142 = AXIS2_PLACEMENT_3D ( 'NONE', #32, #41, #31 ) ;
#143 = ORIENTED_EDGE ( 'NONE', *, *, #98, .F. ) ;
#144 = ADVANCED_FACE ( 'NONE', ( #162 ), #92, .T. ) ;
#145 = COORDINATED_UNIVERSAL_TIME_OFFSET ( 5, 0, .BEHIND. ) ;
#146 = APPROVAL_PERSON_ORGANIZATION ( #9, #11, #107 ) ;
#147 = APPROVAL_DATE_TIME ( #8, #87 ) ;
#148 = CARTESIAN_POINT ( 'NONE',  ( -25.00000000000000000, 0.0000000000000000000, 2.500000000000000000 ) ) ;
#149 = AXIS2_PLACEMENT_3D ( 'NONE', #57, #100, #153 ) ;
#150 = CC_DESIGN_APPROVAL ( #87, ( #161 ) ) ;
#151 = DIRECTION ( 'NONE',  ( 0.0000000000000000000, 0.0000000000000000000, 1.000000000000000000 ) ) ;
#152 = COORDINATED_UNIVERSAL_TIME_OFFSET ( 5, 0, .BEHIND. ) ;
#153 = DIRECTION ( 'NONE',  ( -1.000000000000000000, 0.0000000000000000000, 0.0000000000000000000 ) ) ;
#154 = DIRECTION ( 'NONE',  ( -0.0000000000000000000, -0.0000000000000000000, -1.000000000000000000 ) ) ;
#155 = DIRECTION ( 'NONE',  ( 0.0000000000000000000, 0.0000000000000000000, 1.000000000000000000 ) ) ;
#156 = APPROVAL_ROLE ( '' ) ;
#157 = PERSON_AND_ORGANIZATION_ROLE ( 'creator' ) ;
#158 = ORIENTED_EDGE ( 'NONE', *, *, #98, .T. ) ;
#159 = ADVANCED_FACE ( 'NONE', ( #59 ), #13, .T. ) ;
#160 = CC_DESIGN_PERSON_AND_ORGANIZATION_ASSIGNMENT ( #40, #84, ( #1 ) ) ;
#161 = SECURITY_CLASSIFICATION ( '', '', #122 ) ;
#162 = FACE_OUTER_BOUND ( 'NONE', #44, .T. ) ;
#163 = AXIS2_PLACEMENT_3D ( 'NONE', #71, #5, #45 ) ;
#164 = DIRECTION ( 'NONE',  ( 1.000000000000000000, 0.0000000000000000000, 0.0000000000000000000 ) ) ;
#165 = CC_DESIGN_PERSON_AND_ORGANIZATION_ASSIGNMENT ( #169, #157, ( #115 ) ) ;
#166 = LOCAL_TIME ( 16, 52, 2.000000000000000000, #145 ) ;
#167 = DIRECTION ( 'NONE',  ( 1.000000000000000000, 0.0000000000000000000, -0.0000000000000000000 ) ) ;
#168 = MECHANICAL_CONTEXT ( 'NONE', #116, 'mechanical' ) ;
#169 = PERSON_AND_ORGANIZATION ( #24, #121 ) ;
#170 =( LENGTH_UNIT ( ) NAMED_UNIT ( * ) SI_UNIT ( .MILLI., .METRE. ) );
#171 = FACE_OUTER_BOUND ( 'NONE', #79, .T. ) ;
#172 = PRODUCT_DEFINITION ( 'UNKNOWN', '', #115, #47 ) ;
#173 = CALENDAR_DATE ( 2018, 5, 10 ) ;
#174 = CC_DESIGN_DATE_AND_TIME_ASSIGNMENT ( #12, #124, ( #161 ) ) ;
#175 = VECTOR ( 'NONE', #17, 1000.000000000000000 ) ;
ENDSEC;
END-ISO-10303-21;
