ISO-10303-21;
HEADER;
FILE_DESCRIPTION (( 'STEP AP203' ),
    '1' );
FILE_NAME ('Web Model 64397MX_64399.step',
    '2017-10-30T13:02:34',
    ( '' ),
    ( '' ),
    'SwSTEP 2.0',
    'SolidWorks 2016',
    '' );
FILE_SCHEMA (( 'CONFIG_CONTROL_DESIGN' ));
ENDSEC;

DATA;
#1 = CC_DESIGN_SECURITY_CLASSIFICATION ( #63, ( #38 ) ) ;
#2 = DATE_AND_TIME ( #54, #57 ) ;
#3 = ORIENTED_EDGE ( 'NONE', *, *, #190, .T. ) ;
#4 = DIRECTION ( 'NONE',  ( 1.000000000000000000, 1.365923996832131600E-016, -0.0000000000000000000 ) ) ;
#5 = MECHANICAL_CONTEXT ( 'NONE', #207, 'mechanical' ) ;
#6 = PLANE ( 'NONE',  #228 ) ;
#7 = APPROVAL_STATUS ( 'not_yet_approved' ) ;
#8 = APPROVAL_DATE_TIME ( #171, #91 ) ;
#9 = CARTESIAN_POINT ( 'NONE',  ( -6.350000000000000500, -6.350000000000000500, -3.000000000000000000 ) ) ;
#10 = DIRECTION ( 'NONE',  ( 0.0000000000000000000, 0.0000000000000000000, 1.000000000000000000 ) ) ;
#11 = DIRECTION ( 'NONE',  ( 0.0000000000000000000, -0.0000000000000000000, 1.000000000000000000 ) ) ;
#12 = VERTEX_POINT ( 'NONE', #90 ) ;
#13 = PLANE ( 'NONE',  #135 ) ;
#14 = CARTESIAN_POINT ( 'NONE',  ( 6.349999999999998800, -6.349999999999998800, 3.000000000000000000 ) ) ;
#15 = LOCAL_TIME ( 9, 2, 34.00000000000000000, #223 ) ;
#16 = LINE ( 'NONE', #27, #20 ) ;
#17 = PRODUCT ( 'Web Model 64397MX_64399', 'Web Model 64397MX_64399', '', ( #5 ) ) ;
#18 = PERSON_AND_ORGANIZATION ( #236, #39 ) ;
#19 = ORIENTED_EDGE ( 'NONE', *, *, #235, .F. ) ;
#20 = VECTOR ( 'NONE', #43, 1000.000000000000000 ) ;
#21 = LINE ( 'NONE', #78, #36 ) ;
#22 = EDGE_LOOP ( 'NONE', ( #76, #88, #200, #34 ) ) ;
#23 = PERSON_AND_ORGANIZATION ( #236, #39 ) ;
#24 = ORIENTED_EDGE ( 'NONE', *, *, #56, .F. ) ;
#25 = APPLICATION_PROTOCOL_DEFINITION ( 'international standard', 'config_control_design', 1994, #194 ) ;
#26 = CC_DESIGN_PERSON_AND_ORGANIZATION_ASSIGNMENT ( #51, #152, ( #67 ) ) ;
#27 = CARTESIAN_POINT ( 'NONE',  ( 6.349999999999998800, -6.349999999999998800, 3.000000000000000000 ) ) ;
#28 = APPROVAL_ROLE ( '' ) ;
#29 = ORIENTED_EDGE ( 'NONE', *, *, #174, .T. ) ;
#30 = DATE_TIME_ROLE ( 'creation_date' ) ;
#31 = ORIENTED_EDGE ( 'NONE', *, *, #175, .T. ) ;
#32 = CARTESIAN_POINT ( 'NONE',  ( 6.349999999999998800, 6.350000000000000500, 3.000000000000000000 ) ) ;
#33 = ADVANCED_FACE ( 'NONE', ( #116 ), #6, .F. ) ;
#34 = ORIENTED_EDGE ( 'NONE', *, *, #235, .T. ) ;
#35 = ORIENTED_EDGE ( 'NONE', *, *, #71, .T. ) ;
#36 = VECTOR ( 'NONE', #227, 1000.000000000000000 ) ;
#37 = CARTESIAN_POINT ( 'NONE',  ( 0.0000000000000000000, 0.0000000000000000000, -3.000000000000000000 ) ) ;
#38 = PRODUCT_DEFINITION_FORMATION_WITH_SPECIFIED_SOURCE ( 'ANY', '', #17, .NOT_KNOWN. ) ;
#39 = ORGANIZATION ( 'UNSPECIFIED', 'UNSPECIFIED', '' ) ;
#40 = DIRECTION ( 'NONE',  ( 0.0000000000000000000, 0.0000000000000000000, 1.000000000000000000 ) ) ;
#41 = PERSON_AND_ORGANIZATION_ROLE ( 'design_supplier' ) ;
#42 = CARTESIAN_POINT ( 'NONE',  ( -6.350000000000000500, -6.350000000000000500, 3.000000000000000000 ) ) ;
#43 = DIRECTION ( 'NONE',  ( -0.0000000000000000000, -0.0000000000000000000, -1.000000000000000000 ) ) ;
#44 = PERSON_AND_ORGANIZATION_ROLE ( 'creator' ) ;
#45 = APPROVAL_STATUS ( 'not_yet_approved' ) ;
#46 = DIRECTION ( 'NONE',  ( 0.0000000000000000000, -0.0000000000000000000, 1.000000000000000000 ) ) ;
#47 = CARTESIAN_POINT ( 'NONE',  ( -6.350000000000000500, 6.349999999999998800, 3.000000000000000000 ) ) ;
#48 = EDGE_CURVE ( 'NONE', #109, #157, #216, .T. ) ;
#49 = CC_DESIGN_APPROVAL ( #115, ( #38 ) ) ;
#50 = SHAPE_DEFINITION_REPRESENTATION ( #146, #237 ) ;
#51 = PERSON_AND_ORGANIZATION ( #236, #39 ) ;
#52 = VERTEX_POINT ( 'NONE', #14 ) ;
#53 = VECTOR ( 'NONE', #59, 1000.000000000000000 ) ;
#54 = CALENDAR_DATE ( 2017, 30, 10 ) ;
#55 = CALENDAR_DATE ( 2017, 30, 10 ) ;
#56 = EDGE_CURVE ( 'NONE', #75, #170, #148, .T. ) ;
#57 = LOCAL_TIME ( 9, 2, 34.00000000000000000, #159 ) ;
#58 = PRODUCT_RELATED_PRODUCT_CATEGORY ( 'detail', '', ( #17 ) ) ;
#59 = DIRECTION ( 'NONE',  ( 0.0000000000000000000, 1.000000000000000000, 0.0000000000000000000 ) ) ;
#60 = APPROVAL_DATE_TIME ( #2, #87 ) ;
#61 = EDGE_CURVE ( 'NONE', #52, #109, #101, .T. ) ;
#62 = DIRECTION ( 'NONE',  ( -1.000000000000000000, 0.0000000000000000000, 0.0000000000000000000 ) ) ;
#63 = SECURITY_CLASSIFICATION ( '', '', #195 ) ;
#64 = LINE ( 'NONE', #9, #187 ) ;
#65 = PERSON_AND_ORGANIZATION_ROLE ( 'design_owner' ) ;
#66 = CARTESIAN_POINT ( 'NONE',  ( 6.349999999999998800, 6.350000000000000500, -3.000000000000000000 ) ) ;
#67 = PRODUCT_DEFINITION ( 'UNKNOWN', '', #38, #89 ) ;
#68 = VECTOR ( 'NONE', #169, 1000.000000000000000 ) ;
#69 = ORIENTED_EDGE ( 'NONE', *, *, #110, .F. ) ;
#70 = VERTEX_POINT ( 'NONE', #92 ) ;
#71 = EDGE_CURVE ( 'NONE', #52, #172, #16, .T. ) ;
#72 = LOCAL_TIME ( 9, 2, 34.00000000000000000, #79 ) ;
#73 = EDGE_LOOP ( 'NONE', ( #3, #105, #185, #210 ) ) ;
#74 = VECTOR ( 'NONE', #202, 1000.000000000000000 ) ;
#75 = VERTEX_POINT ( 'NONE', #47 ) ;
#76 = ORIENTED_EDGE ( 'NONE', *, *, #119, .T. ) ;
#77 = CALENDAR_DATE ( 2017, 30, 10 ) ;
#78 = CARTESIAN_POINT ( 'NONE',  ( 6.349999999999998800, 6.350000000000000500, -3.000000000000000000 ) ) ;
#79 = COORDINATED_UNIVERSAL_TIME_OFFSET ( 5, 0, .BEHIND. ) ;
#80 = PERSON_AND_ORGANIZATION_ROLE ( 'classification_officer' ) ;
#81 = APPROVAL_STATUS ( 'not_yet_approved' ) ;
#82 = FACE_OUTER_BOUND ( 'NONE', #22, .T. ) ;
#83 = CARTESIAN_POINT ( 'NONE',  ( 0.0000000000000000000, 0.0000000000000000000, 3.000000000000000000 ) ) ;
#84 = CARTESIAN_POINT ( 'NONE',  ( 6.349999999999998800, -6.349999999999998800, 3.000000000000000000 ) ) ;
#85 = APPROVAL_PERSON_ORGANIZATION ( #188, #91, #137 ) ;
#86 = ADVANCED_FACE ( 'NONE', ( #125 ), #231, .F. ) ;
#87 = APPROVAL ( #45, 'UNSPECIFIED' ) ;
#88 = ORIENTED_EDGE ( 'NONE', *, *, #133, .T. ) ;
#89 = DESIGN_CONTEXT ( 'detailed design', #194, 'design' ) ;
#90 = CARTESIAN_POINT ( 'NONE',  ( -6.350000000000000500, -6.350000000000000500, 3.000000000000000000 ) ) ;
#91 = APPROVAL ( #81, 'UNSPECIFIED' ) ;
#92 = CARTESIAN_POINT ( 'NONE',  ( -6.350000000000000500, -6.350000000000000500, -3.000000000000000000 ) ) ;
#93 = CARTESIAN_POINT ( 'NONE',  ( 0.0000000000000000000, 0.0000000000000000000, 0.0000000000000000000 ) ) ;
#94 = DIRECTION ( 'NONE',  ( -0.0000000000000000000, -0.0000000000000000000, -1.000000000000000000 ) ) ;
#95 = CC_DESIGN_APPROVAL ( #91, ( #67 ) ) ;
#96 = PERSON_AND_ORGANIZATION ( #236, #39 ) ;
#97 = DIRECTION ( 'NONE',  ( -0.0000000000000000000, -1.000000000000000000, -0.0000000000000000000 ) ) ;
#98 = PLANE ( 'NONE',  #151 ) ;
#99 = CARTESIAN_POINT ( 'NONE',  ( 6.349999999999998800, 6.350000000000000500, 3.000000000000000000 ) ) ;
#100 = DIRECTION ( 'NONE',  ( 1.000000000000000000, 0.0000000000000000000, -0.0000000000000000000 ) ) ;
#101 = LINE ( 'NONE', #158, #160 ) ;
#102 = ADVANCED_FACE ( 'NONE', ( #82 ), #98, .T. ) ;
#103 = CC_DESIGN_DATE_AND_TIME_ASSIGNMENT ( #145, #30, ( #67 ) ) ;
#104 = APPROVAL_PERSON_ORGANIZATION ( #96, #115, #28 ) ;
#105 = ORIENTED_EDGE ( 'NONE', *, *, #175, .F. ) ;
#106 = CALENDAR_DATE ( 2017, 30, 10 ) ;
#107 = LINE ( 'NONE', #224, #53 ) ;
#108 = DATE_AND_TIME ( #106, #221 ) ;
#109 = VERTEX_POINT ( 'NONE', #230 ) ;
#110 = EDGE_CURVE ( 'NONE', #70, #172, #128, .T. ) ;
#111 = VECTOR ( 'NONE', #122, 1000.000000000000000 ) ;
#112 = CC_DESIGN_APPROVAL ( #87, ( #63 ) ) ;
#113 = VECTOR ( 'NONE', #120, 1000.000000000000000 ) ;
#114 = MANIFOLD_SOLID_BREP ( 'Boss-Extrude1', #215 ) ;
#115 = APPROVAL ( #7, 'UNSPECIFIED' ) ;
#116 = FACE_OUTER_BOUND ( 'NONE', #73, .T. ) ;
#117 = CARTESIAN_POINT ( 'NONE',  ( 6.349999999999998800, 6.350000000000000500, 3.000000000000000000 ) ) ;
#118 = PLANE ( 'NONE',  #161 ) ;
#119 = EDGE_CURVE ( 'NONE', #75, #12, #121, .T. ) ;
#120 = DIRECTION ( 'NONE',  ( -1.000000000000000000, -1.365923996832131600E-016, 0.0000000000000000000 ) ) ;
#121 = LINE ( 'NONE', #229, #111 ) ;
#122 = DIRECTION ( 'NONE',  ( -0.0000000000000000000, -1.000000000000000000, -0.0000000000000000000 ) ) ;
#123 = ADVANCED_FACE ( 'NONE', ( #141 ), #140, .F. ) ;
#124 = ADVANCED_FACE ( 'NONE', ( #168 ), #13, .F. ) ;
#125 = FACE_OUTER_BOUND ( 'NONE', #206, .T. ) ;
#126 = EDGE_CURVE ( 'NONE', #157, #170, #21, .T. ) ;
#127 = CC_DESIGN_PERSON_AND_ORGANIZATION_ASSIGNMENT ( #209, #80, ( #63 ) ) ;
#128 = LINE ( 'NONE', #182, #131 ) ;
#129 = LINE ( 'NONE', #196, #204 ) ;
#130 = UNCERTAINTY_MEASURE_WITH_UNIT (LENGTH_MEASURE( 1.000000000000000100E-005 ), #179, 'distance_accuracy_value', 'NONE');
#131 = VECTOR ( 'NONE', #197, 1000.000000000000000 ) ;
#132 = DIRECTION ( 'NONE',  ( -1.365923996832131600E-016, 1.000000000000000000, 0.0000000000000000000 ) ) ;
#133 = EDGE_CURVE ( 'NONE', #12, #52, #219, .T. ) ;
#134 = DIRECTION ( 'NONE',  ( 1.000000000000000000, 1.365923996832131600E-016, 0.0000000000000000000 ) ) ;
#135 = AXIS2_PLACEMENT_3D ( 'NONE', #211, #132, #192 ) ;
#136 = ORIENTED_EDGE ( 'NONE', *, *, #126, .F. ) ;
#137 = APPROVAL_ROLE ( '' ) ;
#138 = EDGE_LOOP ( 'NONE', ( #233, #164, #144, #31 ) ) ;
#139 = DIRECTION ( 'NONE',  ( 1.000000000000000000, 0.0000000000000000000, -0.0000000000000000000 ) ) ;
#140 = PLANE ( 'NONE',  #163 ) ;
#141 = FACE_OUTER_BOUND ( 'NONE', #180, .T. ) ;
#142 = AXIS2_PLACEMENT_3D ( 'NONE', #93, #10, #155 ) ;
#143 = ADVANCED_FACE ( 'NONE', ( #213 ), #118, .F. ) ;
#144 = ORIENTED_EDGE ( 'NONE', *, *, #133, .F. ) ;
#145 = DATE_AND_TIME ( #55, #199 ) ;
#146 = PRODUCT_DEFINITION_SHAPE ( 'NONE', 'NONE',  #67 ) ;
#147 = APPROVAL_PERSON_ORGANIZATION ( #198, #87, #176 ) ;
#148 = LINE ( 'NONE', #217, #74 ) ;
#149 = DIRECTION ( 'NONE',  ( 1.000000000000000000, 0.0000000000000000000, 0.0000000000000000000 ) ) ;
#150 = CARTESIAN_POINT ( 'NONE',  ( 6.349999999999998800, -6.349999999999998800, -3.000000000000000000 ) ) ;
#151 = AXIS2_PLACEMENT_3D ( 'NONE', #83, #46, #139 ) ;
#152 = PERSON_AND_ORGANIZATION_ROLE ( 'creator' ) ;
#153 = COORDINATED_UNIVERSAL_TIME_OFFSET ( 5, 0, .BEHIND. ) ;
#154 = COORDINATED_UNIVERSAL_TIME_OFFSET ( 5, 0, .BEHIND. ) ;
#155 = DIRECTION ( 'NONE',  ( 1.000000000000000000, 0.0000000000000000000, 0.0000000000000000000 ) ) ;
#156 = DIRECTION ( 'NONE',  ( 1.365923996832131600E-016, -1.000000000000000000, 0.0000000000000000000 ) ) ;
#157 = VERTEX_POINT ( 'NONE', #66 ) ;
#158 = CARTESIAN_POINT ( 'NONE',  ( 6.349999999999998800, -6.349999999999998800, 3.000000000000000000 ) ) ;
#159 = COORDINATED_UNIVERSAL_TIME_OFFSET ( 5, 0, .BEHIND. ) ;
#160 = VECTOR ( 'NONE', #183, 1000.000000000000000 ) ;
#161 = AXIS2_PLACEMENT_3D ( 'NONE', #226, #62, #40 ) ;
#162 = LINE ( 'NONE', #117, #113 ) ;
#163 = AXIS2_PLACEMENT_3D ( 'NONE', #32, #156, #134 ) ;
#164 = ORIENTED_EDGE ( 'NONE', *, *, #71, .F. ) ;
#165 = ORIENTED_EDGE ( 'NONE', *, *, #48, .F. ) ;
#166 = ORIENTED_EDGE ( 'NONE', *, *, #48, .T. ) ;
#167 = ORIENTED_EDGE ( 'NONE', *, *, #174, .F. ) ;
#168 = FACE_OUTER_BOUND ( 'NONE', #138, .T. ) ;
#169 = DIRECTION ( 'NONE',  ( -0.0000000000000000000, -0.0000000000000000000, -1.000000000000000000 ) ) ;
#170 = VERTEX_POINT ( 'NONE', #173 ) ;
#171 = DATE_AND_TIME ( #77, #15 ) ;
#172 = VERTEX_POINT ( 'NONE', #150 ) ;
#173 = CARTESIAN_POINT ( 'NONE',  ( -6.350000000000000500, 6.349999999999998800, -3.000000000000000000 ) ) ;
#174 = EDGE_CURVE ( 'NONE', #172, #157, #107, .T. ) ;
#175 = EDGE_CURVE ( 'NONE', #12, #70, #129, .T. ) ;
#176 = APPROVAL_ROLE ( '' ) ;
#177 =( GEOMETRIC_REPRESENTATION_CONTEXT ( 3 ) GLOBAL_UNCERTAINTY_ASSIGNED_CONTEXT ( ( #130 ) ) GLOBAL_UNIT_ASSIGNED_CONTEXT ( ( #179, #181, #208 ) ) REPRESENTATION_CONTEXT ( 'NONE', 'WORKASPACE' ) );
#178 = ORIENTED_EDGE ( 'NONE', *, *, #61, .F. ) ;
#179 =( LENGTH_UNIT ( ) NAMED_UNIT ( * ) SI_UNIT ( .MILLI., .METRE. ) );
#180 = EDGE_LOOP ( 'NONE', ( #220, #24, #19, #166 ) ) ;
#181 =( NAMED_UNIT ( * ) PLANE_ANGLE_UNIT ( ) SI_UNIT ( $, .RADIAN. ) );
#182 = CARTESIAN_POINT ( 'NONE',  ( 6.349999999999998800, -6.349999999999998800, -3.000000000000000000 ) ) ;
#183 = DIRECTION ( 'NONE',  ( 0.0000000000000000000, 1.000000000000000000, 0.0000000000000000000 ) ) ;
#184 = DATE_AND_TIME ( #234, #72 ) ;
#185 = ORIENTED_EDGE ( 'NONE', *, *, #119, .F. ) ;
#186 = CC_DESIGN_PERSON_AND_ORGANIZATION_ASSIGNMENT ( #232, #65, ( #17 ) ) ;
#187 = VECTOR ( 'NONE', #97, 1000.000000000000000 ) ;
#188 = PERSON_AND_ORGANIZATION ( #236, #39 ) ;
#189 = EDGE_LOOP ( 'NONE', ( #29, #165, #178, #35 ) ) ;
#190 = EDGE_CURVE ( 'NONE', #170, #70, #64, .T. ) ;
#191 = APPROVAL_DATE_TIME ( #184, #115 ) ;
#192 = DIRECTION ( 'NONE',  ( -1.000000000000000000, -1.365923996832131600E-016, 0.0000000000000000000 ) ) ;
#193 = AXIS2_PLACEMENT_3D ( 'NONE', #37, #11, #100 ) ;
#194 = APPLICATION_CONTEXT ( 'configuration controlled 3d designs of mechanical parts and assemblies' ) ;
#195 = SECURITY_CLASSIFICATION_LEVEL ( 'unclassified' ) ;
#196 = CARTESIAN_POINT ( 'NONE',  ( -6.350000000000000500, -6.350000000000000500, 3.000000000000000000 ) ) ;
#197 = DIRECTION ( 'NONE',  ( 1.000000000000000000, 1.365923996832131600E-016, -0.0000000000000000000 ) ) ;
#198 = PERSON_AND_ORGANIZATION ( #236, #39 ) ;
#199 = LOCAL_TIME ( 9, 2, 34.00000000000000000, #154 ) ;
#200 = ORIENTED_EDGE ( 'NONE', *, *, #61, .T. ) ;
#201 = ORIENTED_EDGE ( 'NONE', *, *, #190, .F. ) ;
#202 = DIRECTION ( 'NONE',  ( -0.0000000000000000000, -0.0000000000000000000, -1.000000000000000000 ) ) ;
#203 = CC_DESIGN_PERSON_AND_ORGANIZATION_ASSIGNMENT ( #23, #44, ( #38 ) ) ;
#204 = VECTOR ( 'NONE', #94, 1000.000000000000000 ) ;
#205 = DIRECTION ( 'NONE',  ( 0.0000000000000000000, 0.0000000000000000000, -1.000000000000000000 ) ) ;
#206 = EDGE_LOOP ( 'NONE', ( #201, #136, #167, #69 ) ) ;
#207 = APPLICATION_CONTEXT ( 'configuration controlled 3d designs of mechanical parts and assemblies' ) ;
#208 =( NAMED_UNIT ( * ) SI_UNIT ( $, .STERADIAN. ) SOLID_ANGLE_UNIT ( ) );
#209 = PERSON_AND_ORGANIZATION ( #236, #39 ) ;
#210 = ORIENTED_EDGE ( 'NONE', *, *, #56, .T. ) ;
#211 = CARTESIAN_POINT ( 'NONE',  ( 6.349999999999998800, -6.349999999999998800, 3.000000000000000000 ) ) ;
#212 = APPLICATION_PROTOCOL_DEFINITION ( 'international standard', 'config_control_design', 1994, #207 ) ;
#213 = FACE_OUTER_BOUND ( 'NONE', #189, .T. ) ;
#214 = CC_DESIGN_PERSON_AND_ORGANIZATION_ASSIGNMENT ( #18, #41, ( #38 ) ) ;
#215 = CLOSED_SHELL ( 'NONE', ( #33, #124, #143, #123, #102, #86 ) ) ;
#216 = LINE ( 'NONE', #99, #68 ) ;
#217 = CARTESIAN_POINT ( 'NONE',  ( -6.350000000000000500, 6.349999999999998800, 3.000000000000000000 ) ) ;
#218 = VECTOR ( 'NONE', #4, 1000.000000000000000 ) ;
#219 = LINE ( 'NONE', #84, #218 ) ;
#220 = ORIENTED_EDGE ( 'NONE', *, *, #126, .T. ) ;
#221 = LOCAL_TIME ( 9, 2, 34.00000000000000000, #153 ) ;
#222 = DATE_TIME_ROLE ( 'classification_date' ) ;
#223 = COORDINATED_UNIVERSAL_TIME_OFFSET ( 5, 0, .BEHIND. ) ;
#224 = CARTESIAN_POINT ( 'NONE',  ( 6.349999999999998800, -6.349999999999998800, -3.000000000000000000 ) ) ;
#225 = CC_DESIGN_DATE_AND_TIME_ASSIGNMENT ( #108, #222, ( #63 ) ) ;
#226 = CARTESIAN_POINT ( 'NONE',  ( 6.349999999999998800, -6.349999999999998800, 3.000000000000000000 ) ) ;
#227 = DIRECTION ( 'NONE',  ( -1.000000000000000000, -1.365923996832131600E-016, 0.0000000000000000000 ) ) ;
#228 = AXIS2_PLACEMENT_3D ( 'NONE', #42, #149, #205 ) ;
#229 = CARTESIAN_POINT ( 'NONE',  ( -6.350000000000000500, -6.350000000000000500, 3.000000000000000000 ) ) ;
#230 = CARTESIAN_POINT ( 'NONE',  ( 6.349999999999998800, 6.350000000000000500, 3.000000000000000000 ) ) ;
#231 = PLANE ( 'NONE',  #193 ) ;
#232 = PERSON_AND_ORGANIZATION ( #236, #39 ) ;
#233 = ORIENTED_EDGE ( 'NONE', *, *, #110, .T. ) ;
#234 = CALENDAR_DATE ( 2017, 30, 10 ) ;
#235 = EDGE_CURVE ( 'NONE', #109, #75, #162, .T. ) ;
#236 = PERSON ( 'UNSPECIFIED', 'UNSPECIFIED', 'UNSPECIFIED', ('UNSPECIFIED'), ('UNSPECIFIED'), ('UNSPECIFIED') ) ;
#237 = ADVANCED_BREP_SHAPE_REPRESENTATION ( 'Web Model 64397MX_64399', ( #114, #142 ), #177 ) ;
ENDSEC;
END-ISO-10303-21;
