ISO-10303-21;
HEADER;
FILE_DESCRIPTION (( 'STEP AP214' ),
    '1' );
FILE_NAME ('3280-E0W.STEP',
    '2009-12-21T16:57:00',
    ( ' ' ),
    ( ' ' ),
    'SwSTEP 2.0',
    'SolidWorks 2009',
    '' );
FILE_SCHEMA (( 'AUTOMOTIVE_DESIGN' ));
ENDSEC;

DATA;
#1 = CARTESIAN_POINT ( 'NONE',  ( 0.0000000000000000000, 25.40000000000032500, 1.183347155988448800 ) ) ;
#2 = DIRECTION ( 'NONE',  ( -0.0000000000000000000, -0.0000000000000000000, 1.000000000000000000 ) ) ;
#3 = VECTOR ( 'NONE', #2, 1000.000000000000000 ) ;
#4 =( NAMED_UNIT ( * ) PLANE_ANGLE_UNIT ( ) SI_UNIT ( $, .RADIAN. ) );
#5 =( LENGTH_UNIT ( ) NAMED_UNIT ( * ) SI_UNIT ( .MILLI., .METRE. ) );
#6 = MECHANICAL_DESIGN_GEOMETRIC_PRESENTATION_REPRESENTATION (  '', ( #8 ), #95 ) ;
#7 = PRESENTATION_LAYER_ASSIGNMENT (  '', '', ( #8 ) ) ;
#8 = STYLED_ITEM ( 'NONE', ( #71 ), #103 ) ;
#9 = UNCERTAINTY_MEASURE_WITH_UNIT (LENGTH_MEASURE( 1.000000000000000100E-005 ), #57, 'distance_accuracy_value', 'NONE');
#10 =( NAMED_UNIT ( * ) SI_UNIT ( $, .STERADIAN. ) SOLID_ANGLE_UNIT ( ) );
#11 = STYLED_ITEM ( 'NONE', ( #12 ), #258 ) ;
#12 = PRESENTATION_STYLE_ASSIGNMENT (( #13 ) ) ;
#13 = SURFACE_STYLE_USAGE ( .BOTH. , #14 ) ;
#14 = SURFACE_SIDE_STYLE ('',( #15 ) ) ;
#15 = SURFACE_STYLE_FILL_AREA ( #16 ) ;
#16 = FILL_AREA_STYLE ('',( #17 ) ) ;
#17 = FILL_AREA_STYLE_COLOUR ( '', #18 ) ;
#18 = COLOUR_RGB ( '',0.9568627450980391500, 0.9490196078431372100, 0.9607843137254902200 ) ;
#19 = FACE_OUTER_BOUND ( 'NONE', #259, .T. ) ;
#20 = CARTESIAN_POINT ( 'NONE',  ( -25.39999999999999900, 3.110500138708838200E-015, 4.308132045400366600 ) ) ;
#21 = LINE ( 'NONE', #20, #3 ) ;
#22 = CARTESIAN_POINT ( 'NONE',  ( -25.39999999999999900, 3.110500138708838200E-015, -1.810000000000000100 ) ) ;
#23 = DIRECTION ( 'NONE',  ( 1.000000000000000000, 0.0000000000000000000, 0.0000000000000000000 ) ) ;
#24 = DIRECTION ( 'NONE',  ( -0.0000000000000000000, -0.0000000000000000000, 1.000000000000000000 ) ) ;
#25 = CARTESIAN_POINT ( 'NONE',  ( 0.0000000000000000000, 0.0000000000000000000, 1.183347155988451600 ) ) ;
#26 = AXIS2_PLACEMENT_3D ( 'NONE', #25, #24, #23 ) ;
#27 = CIRCLE ( 'NONE', #26, 25.39999999999999900 ) ;
#28 = LINE ( 'NONE', #118, #70 ) ;
#29 = DIRECTION ( 'NONE',  ( -0.0000000000000000000, -0.0000000000000000000, 1.000000000000000000 ) ) ;
#30 = CARTESIAN_POINT ( 'NONE',  ( 0.0000000000000000000, 0.0000000000000000000, 1.183347155988451600 ) ) ;
#31 = AXIS2_PLACEMENT_3D ( 'NONE', #30, #29, #37 ) ;
#32 = CARTESIAN_POINT ( 'NONE',  ( 0.0000000000000000000, 0.0000000000000000000, 4.308132045400366600 ) ) ;
#33 = AXIS2_PLACEMENT_3D ( 'NONE', #32, #117, #116 ) ;
#34 = CYLINDRICAL_SURFACE ( 'NONE', #33, 25.39999999999999900 ) ;
#35 =( GEOMETRIC_REPRESENTATION_CONTEXT ( 3 ) GLOBAL_UNCERTAINTY_ASSIGNED_CONTEXT ( ( #38 ) ) GLOBAL_UNIT_ASSIGNED_CONTEXT ( ( #91, #97, #96 ) ) REPRESENTATION_CONTEXT ( 'NONE', 'WORKASPACE' ) );
#36 = CARTESIAN_POINT ( 'NONE',  ( 0.0000000000000000000, 3.153851203634150900E-014, 1.809999999999978300 ) ) ;
#37 = DIRECTION ( 'NONE',  ( 1.000000000000000000, 0.0000000000000000000, 0.0000000000000000000 ) ) ;
#38 = UNCERTAINTY_MEASURE_WITH_UNIT (LENGTH_MEASURE( 1.000000000000000100E-005 ), #91, 'distance_accuracy_value', 'NONE');
#39 = CARTESIAN_POINT ( 'NONE',  ( 25.39999999999999900, 0.0000000000000000000, -1.810000000000000100 ) ) ;
#40 = DIRECTION ( 'NONE',  ( 1.000000000000000000, 0.0000000000000000000, 0.0000000000000000000 ) ) ;
#41 = DIRECTION ( 'NONE',  ( -0.0000000000000000000, -0.0000000000000000000, 1.000000000000000000 ) ) ;
#42 = CARTESIAN_POINT ( 'NONE',  ( 0.0000000000000000000, 0.0000000000000000000, -513.2700000000001000 ) ) ;
#43 = SPHERICAL_SURFACE ( 'NONE', #48, 515.0800000000000400 ) ;
#44 = AXIS2_PLACEMENT_3D ( 'NONE', #52, #94, #45 ) ;
#45 = DIRECTION ( 'NONE',  ( 1.000000000000000000, 0.0000000000000000000, 0.0000000000000000000 ) ) ;
#46 = DIRECTION ( 'NONE',  ( 0.0000000000000000000, 1.000000000000000000, 0.0000000000000000000 ) ) ;
#47 = DIRECTION ( 'NONE',  ( -1.000000000000000000, 0.0000000000000000000, 0.0000000000000000000 ) ) ;
#48 = AXIS2_PLACEMENT_3D ( 'NONE', #42, #47, #46 ) ;
#49 = AXIS2_PLACEMENT_3D ( 'NONE', #87, #86, #61 ) ;
#50 = SPHERICAL_SURFACE ( 'NONE', #49, 515.0800000000000400 ) ;
#51 = CARTESIAN_POINT ( 'NONE',  ( -3.110500138708878800E-015, -25.40000000000032500, 1.183347155988448800 ) ) ;
#52 = CARTESIAN_POINT ( 'NONE',  ( 0.0000000000000000000, 0.0000000000000000000, 0.0000000000000000000 ) ) ;
#53 = DIRECTION ( 'NONE',  ( 1.000000000000000000, 0.0000000000000000000, 0.0000000000000000000 ) ) ;
#54 = DIRECTION ( 'NONE',  ( -0.0000000000000000000, -0.0000000000000000000, 1.000000000000000000 ) ) ;
#55 = AXIS2_PLACEMENT_3D ( 'NONE', #115, #54, #53 ) ;
#56 =( GEOMETRIC_REPRESENTATION_CONTEXT ( 3 ) GLOBAL_UNCERTAINTY_ASSIGNED_CONTEXT ( ( #60 ) ) GLOBAL_UNIT_ASSIGNED_CONTEXT ( ( #218, #217, #216 ) ) REPRESENTATION_CONTEXT ( 'NONE', 'WORKASPACE' ) );
#57 =( LENGTH_UNIT ( ) NAMED_UNIT ( * ) SI_UNIT ( .MILLI., .METRE. ) );
#58 = MECHANICAL_DESIGN_GEOMETRIC_PRESENTATION_REPRESENTATION (  '', ( #80 ), #85 ) ;
#59 = PRESENTATION_LAYER_ASSIGNMENT (  '', '', ( #80 ) ) ;
#60 = UNCERTAINTY_MEASURE_WITH_UNIT (LENGTH_MEASURE( 1.000000000000000100E-005 ), #218, 'distance_accuracy_value', 'NONE');
#61 = DIRECTION ( 'NONE',  ( 0.0000000000000000000, 1.000000000000000000, 0.0000000000000000000 ) ) ;
#62 = FILL_AREA_STYLE ('',( #63 ) ) ;
#63 = FILL_AREA_STYLE_COLOUR ( '', #64 ) ;
#64 = COLOUR_RGB ( '',0.9568627450980391500, 0.9490196078431372100, 0.9607843137254902200 ) ;
#65 = DIRECTION ( 'NONE',  ( 1.000000000000000000, 0.0000000000000000000, 0.0000000000000000000 ) ) ;
#66 = DIRECTION ( 'NONE',  ( -0.0000000000000000000, -0.0000000000000000000, 1.000000000000000000 ) ) ;
#67 = UNCERTAINTY_MEASURE_WITH_UNIT (LENGTH_MEASURE( 1.000000000000000100E-005 ), #79, 'distance_accuracy_value', 'NONE');
#68 =( NAMED_UNIT ( * ) SI_UNIT ( $, .STERADIAN. ) SOLID_ANGLE_UNIT ( ) );
#69 = DIRECTION ( 'NONE',  ( -0.0000000000000000000, -0.0000000000000000000, 1.000000000000000000 ) ) ;
#70 = VECTOR ( 'NONE', #69, 1000.000000000000000 ) ;
#71 = PRESENTATION_STYLE_ASSIGNMENT (( #72 ) ) ;
#72 = SURFACE_STYLE_USAGE ( .BOTH. , #73 ) ;
#73 = SURFACE_SIDE_STYLE ('',( #74 ) ) ;
#74 = SURFACE_STYLE_FILL_AREA ( #75 ) ;
#75 = FILL_AREA_STYLE ('',( #76 ) ) ;
#76 = FILL_AREA_STYLE_COLOUR ( '', #77 ) ;
#77 = COLOUR_RGB ( '',0.7960784313725489700, 0.8235294117647058400, 0.9372549019607843100 ) ;
#78 =( NAMED_UNIT ( * ) PLANE_ANGLE_UNIT ( ) SI_UNIT ( $, .RADIAN. ) );
#79 =( LENGTH_UNIT ( ) NAMED_UNIT ( * ) SI_UNIT ( .MILLI., .METRE. ) );
#80 = STYLED_ITEM ( 'NONE', ( #81 ), #228 ) ;
#81 = PRESENTATION_STYLE_ASSIGNMENT (( #82 ) ) ;
#82 = SURFACE_STYLE_USAGE ( .BOTH. , #83 ) ;
#83 = SURFACE_SIDE_STYLE ('',( #84 ) ) ;
#84 = SURFACE_STYLE_FILL_AREA ( #62 ) ;
#85 =( GEOMETRIC_REPRESENTATION_CONTEXT ( 3 ) GLOBAL_UNCERTAINTY_ASSIGNED_CONTEXT ( ( #9 ) ) GLOBAL_UNIT_ASSIGNED_CONTEXT ( ( #57, #4, #10 ) ) REPRESENTATION_CONTEXT ( 'NONE', 'WORKASPACE' ) );
#86 = DIRECTION ( 'NONE',  ( -1.000000000000000000, 0.0000000000000000000, 0.0000000000000000000 ) ) ;
#87 = CARTESIAN_POINT ( 'NONE',  ( 0.0000000000000000000, 0.0000000000000000000, -513.2700000000001000 ) ) ;
#88 = CARTESIAN_POINT ( 'NONE',  ( 0.0000000000000000000, 0.0000000000000000000, -1.810000000000000100 ) ) ;
#89 = AXIS2_PLACEMENT_3D ( 'NONE', #88, #41, #40 ) ;
#90 = CIRCLE ( 'NONE', #89, 25.39999999999999900 ) ;
#91 =( LENGTH_UNIT ( ) NAMED_UNIT ( * ) SI_UNIT ( .MILLI., .METRE. ) );
#92 = MECHANICAL_DESIGN_GEOMETRIC_PRESENTATION_REPRESENTATION (  '', ( #11 ), #35 ) ;
#93 = PRESENTATION_LAYER_ASSIGNMENT (  '', '', ( #11 ) ) ;
#94 = DIRECTION ( 'NONE',  ( 0.0000000000000000000, 0.0000000000000000000, 1.000000000000000000 ) ) ;
#95 =( GEOMETRIC_REPRESENTATION_CONTEXT ( 3 ) GLOBAL_UNCERTAINTY_ASSIGNED_CONTEXT ( ( #98 ) ) GLOBAL_UNIT_ASSIGNED_CONTEXT ( ( #5, #100, #99 ) ) REPRESENTATION_CONTEXT ( 'NONE', 'WORKASPACE' ) );
#96 =( NAMED_UNIT ( * ) SI_UNIT ( $, .STERADIAN. ) SOLID_ANGLE_UNIT ( ) );
#97 =( NAMED_UNIT ( * ) PLANE_ANGLE_UNIT ( ) SI_UNIT ( $, .RADIAN. ) );
#98 = UNCERTAINTY_MEASURE_WITH_UNIT (LENGTH_MEASURE( 1.000000000000000100E-005 ), #5, 'distance_accuracy_value', 'NONE');
#99 =( NAMED_UNIT ( * ) SI_UNIT ( $, .STERADIAN. ) SOLID_ANGLE_UNIT ( ) );
#100 =( NAMED_UNIT ( * ) PLANE_ANGLE_UNIT ( ) SI_UNIT ( $, .RADIAN. ) );
#101 = CIRCLE ( 'NONE', #31, 25.39999999999999900 ) ;
#102 = CARTESIAN_POINT ( 'NONE',  ( 25.39999999999999900, 0.0000000000000000000, 1.183347155988451600 ) ) ;
#103 = ADVANCED_BREP_SHAPE_REPRESENTATION ( '3280-E0W', ( #132, #44 ), #104 ) ;
#104 =( GEOMETRIC_REPRESENTATION_CONTEXT ( 3 ) GLOBAL_UNCERTAINTY_ASSIGNED_CONTEXT ( ( #67 ) ) GLOBAL_UNIT_ASSIGNED_CONTEXT ( ( #79, #78, #68 ) ) REPRESENTATION_CONTEXT ( 'NONE', 'WORKASPACE' ) );
#105 = CARTESIAN_POINT ( 'NONE',  ( 0.0000000000000000000, 0.0000000000000000000, 1.183347155988451600 ) ) ;
#106 = AXIS2_PLACEMENT_3D ( 'NONE', #105, #66, #65 ) ;
#107 = CIRCLE ( 'NONE', #106, 25.39999999999999900 ) ;
#108 = FACE_OUTER_BOUND ( 'NONE', #141, .T. ) ;
#109 = DIRECTION ( 'NONE',  ( 1.000000000000000000, 0.0000000000000000000, 0.0000000000000000000 ) ) ;
#110 = DIRECTION ( 'NONE',  ( -0.0000000000000000000, -0.0000000000000000000, 1.000000000000000000 ) ) ;
#111 = CARTESIAN_POINT ( 'NONE',  ( 0.0000000000000000000, 0.0000000000000000000, 1.183347155988451600 ) ) ;
#112 = AXIS2_PLACEMENT_3D ( 'NONE', #111, #110, #109 ) ;
#113 = CIRCLE ( 'NONE', #112, 25.39999999999999900 ) ;
#114 = CIRCLE ( 'NONE', #55, 25.39999999999999900 ) ;
#115 = CARTESIAN_POINT ( 'NONE',  ( 0.0000000000000000000, 0.0000000000000000000, -1.810000000000000100 ) ) ;
#116 = DIRECTION ( 'NONE',  ( 1.000000000000000000, 0.0000000000000000000, 0.0000000000000000000 ) ) ;
#117 = DIRECTION ( 'NONE',  ( -0.0000000000000000000, -0.0000000000000000000, 1.000000000000000000 ) ) ;
#118 = CARTESIAN_POINT ( 'NONE',  ( 25.39999999999999900, 0.0000000000000000000, 4.308132045400366600 ) ) ;
#119 = PRODUCT ( '3280-E0W', '3280-E0W', '', ( #120 ) ) ;
#120 = PRODUCT_CONTEXT ( 'NONE', #123, 'mechanical' ) ;
#121 = APPLICATION_PROTOCOL_DEFINITION ( 'draft international standard', 'automotive_design', 1998, #123 ) ;
#122 = SHAPE_DEFINITION_REPRESENTATION ( #129, #103 ) ;
#123 = APPLICATION_CONTEXT ( 'automotive_design' ) ;
#124 = PRODUCT_RELATED_PRODUCT_CATEGORY ( 'part', '', ( #119 ) ) ;
#125 = PRODUCT_DEFINITION_FORMATION_WITH_SPECIFIED_SOURCE ( 'ANY', '', #119, .NOT_KNOWN. ) ;
#126 = PRODUCT_DEFINITION_CONTEXT ( 'detailed design', #128, 'design' ) ;
#127 = APPLICATION_PROTOCOL_DEFINITION ( 'draft international standard', 'automotive_design', 1998, #128 ) ;
#128 = APPLICATION_CONTEXT ( 'automotive_design' ) ;
#129 = PRODUCT_DEFINITION_SHAPE ( 'NONE', 'NONE',  #130 ) ;
#130 = PRODUCT_DEFINITION ( 'UNKNOWN', '', #125, #126 ) ;
#131 = VERTEX_POINT ( 'NONE', #251 ) ;
#132 = MANIFOLD_SOLID_BREP ( 'NONE', #252 ) ;
#133 = EDGE_CURVE ( 'NONE', #194, #195, #183, .T. ) ;
#134 = CARTESIAN_POINT ( 'NONE',  ( 0.0000000000000000000, 0.0000000000000000000, 4.308132045400366600 ) ) ;
#135 = CIRCLE ( 'NONE', #160, 515.0799999999999300 ) ;
#136 = CYLINDRICAL_SURFACE ( 'NONE', #164, 25.39999999999999900 ) ;
#137 =( GEOMETRIC_REPRESENTATION_CONTEXT ( 3 ) GLOBAL_UNCERTAINTY_ASSIGNED_CONTEXT ( ( #223 ) ) GLOBAL_UNIT_ASSIGNED_CONTEXT ( ( #226, #225, #224 ) ) REPRESENTATION_CONTEXT ( 'NONE', 'WORKASPACE' ) );
#138 =( GEOMETRIC_REPRESENTATION_CONTEXT ( 3 ) GLOBAL_UNCERTAINTY_ASSIGNED_CONTEXT ( ( #139 ) ) GLOBAL_UNIT_ASSIGNED_CONTEXT ( ( #232, #145, #144 ) ) REPRESENTATION_CONTEXT ( 'NONE', 'WORKASPACE' ) );
#139 = UNCERTAINTY_MEASURE_WITH_UNIT (LENGTH_MEASURE( 1.000000000000000100E-005 ), #232, 'distance_accuracy_value', 'NONE');
#140 = ORIENTED_EDGE ( 'NONE', *, *, #231, .F. ) ;
#141 = EDGE_LOOP ( 'NONE', ( #254, #208, #206, #255 ) ) ;
#142 = ADVANCED_FACE ( 'NONE', ( #204 ), #180, .F. ) ;
#143 = ADVANCED_FACE ( 'NONE', ( #173 ), #136, .T. ) ;
#144 =( NAMED_UNIT ( * ) SI_UNIT ( $, .STERADIAN. ) SOLID_ANGLE_UNIT ( ) );
#145 =( NAMED_UNIT ( * ) PLANE_ANGLE_UNIT ( ) SI_UNIT ( $, .RADIAN. ) );
#146 = EDGE_CURVE ( 'NONE', #257, #195, #135, .T. ) ;
#147 = EDGE_LOOP ( 'NONE', ( #197, #196, #191, #192 ) ) ;
#148 = ADVANCED_FACE ( 'NONE', ( #156 ), #50, .T. ) ;
#149 = EDGE_CURVE ( 'NONE', #247, #181, #28, .T. ) ;
#150 = PRESENTATION_STYLE_ASSIGNMENT (( #151 ) ) ;
#151 = SURFACE_STYLE_USAGE ( .BOTH. , #152 ) ;
#152 = SURFACE_SIDE_STYLE ('',( #153 ) ) ;
#153 = SURFACE_STYLE_FILL_AREA ( #154 ) ;
#154 = FILL_AREA_STYLE ('',( #161 ) ) ;
#155 = COLOUR_RGB ( '',0.9568627450980391500, 0.9490196078431372100, 0.9607843137254902200 ) ;
#156 = FACE_OUTER_BOUND ( 'NONE', #147, .T. ) ;
#157 = DIRECTION ( 'NONE',  ( 0.0000000000000000000, 0.0000000000000000000, -1.000000000000000000 ) ) ;
#158 = DIRECTION ( 'NONE',  ( 1.000000000000000000, 0.0000000000000000000, 0.0000000000000000000 ) ) ;
#159 = CARTESIAN_POINT ( 'NONE',  ( 0.0000000000000000000, 0.0000000000000000000, -513.2700000000001000 ) ) ;
#160 = AXIS2_PLACEMENT_3D ( 'NONE', #159, #158, #157 ) ;
#161 = FILL_AREA_STYLE_COLOUR ( '', #155 ) ;
#162 = DIRECTION ( 'NONE',  ( 1.000000000000000000, 0.0000000000000000000, 0.0000000000000000000 ) ) ;
#163 = DIRECTION ( 'NONE',  ( -0.0000000000000000000, -0.0000000000000000000, 1.000000000000000000 ) ) ;
#164 = AXIS2_PLACEMENT_3D ( 'NONE', #134, #163, #162 ) ;
#165 = MECHANICAL_DESIGN_GEOMETRIC_PRESENTATION_REPRESENTATION (  '', ( #167 ), #137 ) ;
#166 = PRESENTATION_LAYER_ASSIGNMENT (  '', '', ( #167 ) ) ;
#167 = STYLED_ITEM ( 'NONE', ( #168 ), #143 ) ;
#168 = PRESENTATION_STYLE_ASSIGNMENT (( #169 ) ) ;
#169 = SURFACE_STYLE_USAGE ( .BOTH. , #170 ) ;
#170 = SURFACE_SIDE_STYLE ('',( #171 ) ) ;
#171 = SURFACE_STYLE_FILL_AREA ( #177 ) ;
#172 = COLOUR_RGB ( '',0.9568627450980391500, 0.9490196078431372100, 0.9607843137254902200 ) ;
#173 = FACE_OUTER_BOUND ( 'NONE', #227, .T. ) ;
#174 = DIRECTION ( 'NONE',  ( 1.000000000000000000, 0.0000000000000000000, 0.0000000000000000000 ) ) ;
#175 = DIRECTION ( 'NONE',  ( 0.0000000000000000000, -0.0000000000000000000, 1.000000000000000000 ) ) ;
#176 = CARTESIAN_POINT ( 'NONE',  ( 0.0000000000000000000, 6.649832119370126700E-016, -1.810000000000000100 ) ) ;
#177 = FILL_AREA_STYLE ('',( #178 ) ) ;
#178 = FILL_AREA_STYLE_COLOUR ( '', #172 ) ;
#179 = AXIS2_PLACEMENT_3D ( 'NONE', #176, #175, #174 ) ;
#180 = PLANE ( 'NONE',  #179 ) ;
#181 = VERTEX_POINT ( 'NONE', #102 ) ;
#182 = ORIENTED_EDGE ( 'NONE', *, *, #256, .F. ) ;
#183 = CIRCLE ( 'NONE', #203, 515.0800000000000400 ) ;
#184 = FILL_AREA_STYLE ('',( #185 ) ) ;
#185 = FILL_AREA_STYLE_COLOUR ( '', #186 ) ;
#186 = COLOUR_RGB ( '',0.7960784313725489700, 0.8235294117647058400, 0.9372549019607843100 ) ;
#187 =( GEOMETRIC_REPRESENTATION_CONTEXT ( 3 ) GLOBAL_UNCERTAINTY_ASSIGNED_CONTEXT ( ( #188 ) ) GLOBAL_UNIT_ASSIGNED_CONTEXT ( ( #238, #190, #189 ) ) REPRESENTATION_CONTEXT ( 'NONE', 'WORKASPACE' ) );
#188 = UNCERTAINTY_MEASURE_WITH_UNIT (LENGTH_MEASURE( 1.000000000000000100E-005 ), #238, 'distance_accuracy_value', 'NONE');
#189 =( NAMED_UNIT ( * ) SI_UNIT ( $, .STERADIAN. ) SOLID_ANGLE_UNIT ( ) );
#190 =( NAMED_UNIT ( * ) PLANE_ANGLE_UNIT ( ) SI_UNIT ( $, .RADIAN. ) );
#191 = ORIENTED_EDGE ( 'NONE', *, *, #133, .T. ) ;
#192 = ORIENTED_EDGE ( 'NONE', *, *, #146, .F. ) ;
#193 = EDGE_CURVE ( 'NONE', #131, #194, #101, .T. ) ;
#194 = VERTEX_POINT ( 'NONE', #51 ) ;
#195 = VERTEX_POINT ( 'NONE', #36 ) ;
#196 = ORIENTED_EDGE ( 'NONE', *, *, #193, .T. ) ;
#197 = ORIENTED_EDGE ( 'NONE', *, *, #231, .T. ) ;
#198 = FILL_AREA_STYLE_COLOUR ( '', #199 ) ;
#199 = COLOUR_RGB ( '',0.9568627450980391500, 0.9490196078431372100, 0.9607843137254902200 ) ;
#200 = DIRECTION ( 'NONE',  ( -1.224606353822377300E-016, -1.000000000000000000, 0.0000000000000000000 ) ) ;
#201 = DIRECTION ( 'NONE',  ( -1.000000000000000000, 1.224606353822377300E-016, 0.0000000000000000000 ) ) ;
#202 = CARTESIAN_POINT ( 'NONE',  ( 0.0000000000000000000, 0.0000000000000000000, -513.2700000000001000 ) ) ;
#203 = AXIS2_PLACEMENT_3D ( 'NONE', #202, #201, #200 ) ;
#204 = FACE_OUTER_BOUND ( 'NONE', #236, .T. ) ;
#205 = ORIENTED_EDGE ( 'NONE', *, *, #229, .T. ) ;
#206 = ORIENTED_EDGE ( 'NONE', *, *, #256, .T. ) ;
#207 = ORIENTED_EDGE ( 'NONE', *, *, #193, .F. ) ;
#208 = ORIENTED_EDGE ( 'NONE', *, *, #209, .T. ) ;
#209 = EDGE_CURVE ( 'NONE', #194, #181, #107, .T. ) ;
#210 = PRESENTATION_LAYER_ASSIGNMENT (  '', '', ( #211 ) ) ;
#211 = STYLED_ITEM ( 'NONE', ( #212 ), #132 ) ;
#212 = PRESENTATION_STYLE_ASSIGNMENT (( #213 ) ) ;
#213 = SURFACE_STYLE_USAGE ( .BOTH. , #214 ) ;
#214 = SURFACE_SIDE_STYLE ('',( #215 ) ) ;
#215 = SURFACE_STYLE_FILL_AREA ( #184 ) ;
#216 =( NAMED_UNIT ( * ) SI_UNIT ( $, .STERADIAN. ) SOLID_ANGLE_UNIT ( ) );
#217 =( NAMED_UNIT ( * ) PLANE_ANGLE_UNIT ( ) SI_UNIT ( $, .RADIAN. ) );
#218 =( LENGTH_UNIT ( ) NAMED_UNIT ( * ) SI_UNIT ( .MILLI., .METRE. ) );
#219 = MECHANICAL_DESIGN_GEOMETRIC_PRESENTATION_REPRESENTATION (  '', ( #221 ), #56 ) ;
#220 = PRESENTATION_LAYER_ASSIGNMENT (  '', '', ( #221 ) ) ;
#221 = STYLED_ITEM ( 'NONE', ( #150 ), #148 ) ;
#222 = ORIENTED_EDGE ( 'NONE', *, *, #149, .F. ) ;
#223 = UNCERTAINTY_MEASURE_WITH_UNIT (LENGTH_MEASURE( 1.000000000000000100E-005 ), #226, 'distance_accuracy_value', 'NONE');
#224 =( NAMED_UNIT ( * ) SI_UNIT ( $, .STERADIAN. ) SOLID_ANGLE_UNIT ( ) );
#225 =( NAMED_UNIT ( * ) PLANE_ANGLE_UNIT ( ) SI_UNIT ( $, .RADIAN. ) );
#226 =( LENGTH_UNIT ( ) NAMED_UNIT ( * ) SI_UNIT ( .MILLI., .METRE. ) );
#227 = EDGE_LOOP ( 'NONE', ( #230, #205, #253, #237, #207 ) ) ;
#228 = ADVANCED_FACE ( 'NONE', ( #108 ), #43, .T. ) ;
#229 = EDGE_CURVE ( 'NONE', #248, #247, #90, .T. ) ;
#230 = ORIENTED_EDGE ( 'NONE', *, *, #250, .F. ) ;
#231 = EDGE_CURVE ( 'NONE', #257, #131, #27, .T. ) ;
#232 =( LENGTH_UNIT ( ) NAMED_UNIT ( * ) SI_UNIT ( .MILLI., .METRE. ) );
#233 = MECHANICAL_DESIGN_GEOMETRIC_PRESENTATION_REPRESENTATION (  '', ( #211 ), #138 ) ;
#234 = ORIENTED_EDGE ( 'NONE', *, *, #261, .F. ) ;
#235 = ORIENTED_EDGE ( 'NONE', *, *, #229, .F. ) ;
#236 = EDGE_LOOP ( 'NONE', ( #234, #235 ) ) ;
#237 = ORIENTED_EDGE ( 'NONE', *, *, #209, .F. ) ;
#238 =( LENGTH_UNIT ( ) NAMED_UNIT ( * ) SI_UNIT ( .MILLI., .METRE. ) );
#239 = MECHANICAL_DESIGN_GEOMETRIC_PRESENTATION_REPRESENTATION (  '', ( #241 ), #187 ) ;
#240 = PRESENTATION_LAYER_ASSIGNMENT (  '', '', ( #241 ) ) ;
#241 = STYLED_ITEM ( 'NONE', ( #242 ), #142 ) ;
#242 = PRESENTATION_STYLE_ASSIGNMENT (( #243 ) ) ;
#243 = SURFACE_STYLE_USAGE ( .BOTH. , #244 ) ;
#244 = SURFACE_SIDE_STYLE ('',( #245 ) ) ;
#245 = SURFACE_STYLE_FILL_AREA ( #246 ) ;
#246 = FILL_AREA_STYLE ('',( #198 ) ) ;
#247 = VERTEX_POINT ( 'NONE', #39 ) ;
#248 = VERTEX_POINT ( 'NONE', #22 ) ;
#249 = ORIENTED_EDGE ( 'NONE', *, *, #250, .T. ) ;
#250 = EDGE_CURVE ( 'NONE', #248, #131, #21, .T. ) ;
#251 = CARTESIAN_POINT ( 'NONE',  ( -25.39999999999999900, 3.110500138708838200E-015, 1.183347155988451600 ) ) ;
#252 = CLOSED_SHELL ( 'NONE', ( #258, #148, #228, #143, #142 ) ) ;
#253 = ORIENTED_EDGE ( 'NONE', *, *, #149, .T. ) ;
#254 = ORIENTED_EDGE ( 'NONE', *, *, #133, .F. ) ;
#255 = ORIENTED_EDGE ( 'NONE', *, *, #146, .T. ) ;
#256 = EDGE_CURVE ( 'NONE', #181, #257, #113, .T. ) ;
#257 = VERTEX_POINT ( 'NONE', #1 ) ;
#258 = ADVANCED_FACE ( 'NONE', ( #19 ), #34, .T. ) ;
#259 = EDGE_LOOP ( 'NONE', ( #260, #249, #140, #182, #222 ) ) ;
#260 = ORIENTED_EDGE ( 'NONE', *, *, #261, .T. ) ;
#261 = EDGE_CURVE ( 'NONE', #247, #248, #114, .T. ) ;
ENDSEC;
END-ISO-10303-21;
