ISO-10303-21;
HEADER;
FILE_DESCRIPTION (( 'STEP AP214' ),
    '1' );
FILE_NAME ('21324.step',
    '2022-07-14T19:21:09',
    ( '' ),
    ( '' ),
    'SwSTEP 2.0',
    'SolidWorks 2021',
    '' );
FILE_SCHEMA (( 'AUTOMOTIVE_DESIGN' ));
ENDSEC;

DATA;
#1 = AXIS2_PLACEMENT_3D ( 'NONE', #98, #77, #76 ) ;
#2 = PRODUCT_DEFINITION_SHAPE ( 'NONE', 'NONE',  #80 ) ;
#3 =( LENGTH_UNIT ( ) NAMED_UNIT ( * ) SI_UNIT ( .MILLI., .METRE. ) );
#4 = VECTOR ( 'NONE', #50, 1000.000000000000000 ) ;
#5 = PRODUCT ( '21324', '21324', '', ( #94 ) ) ;
#6 = SURFACE_SIDE_STYLE ('',( #118 ) ) ;
#7 = DIRECTION ( 'NONE',  ( 1.000000000000000000, 0.000000000000000000, 0.000000000000000000 ) ) ;
#8 = PRODUCT_DEFINITION_FORMATION_WITH_SPECIFIED_SOURCE ( 'ANY', '', #5, .NOT_KNOWN. ) ;
#9 = DIRECTION ( 'NONE',  ( 1.000000000000000000, 0.000000000000000000, 0.000000000000000000 ) ) ;
#10 = EDGE_LOOP ( 'NONE', ( #87, #61, #62, #96 ) ) ;
#11 = ORIENTED_EDGE ( 'NONE', *, *, #102, .F. ) ;
#12 = ADVANCED_FACE ( 'NONE', ( #72 ), #52, .F. ) ;
#13 = EDGE_LOOP ( 'NONE', ( #124, #21 ) ) ;
#14 = AXIS2_PLACEMENT_3D ( 'NONE', #29, #82, #129 ) ;
#15 =( LENGTH_UNIT ( ) NAMED_UNIT ( * ) SI_UNIT ( .MILLI., .METRE. ) );
#16 = MECHANICAL_DESIGN_GEOMETRIC_PRESENTATION_REPRESENTATION (  '', ( #37 ), #55 ) ;
#17 = CARTESIAN_POINT ( 'NONE',  ( 0.000000000000000000, 0.000000000000000000, 1.000000000000000000 ) ) ;
#18 = LINE ( 'NONE', #45, #121 ) ;
#19 = CARTESIAN_POINT ( 'NONE',  ( 0.000000000000000000, 0.000000000000000000, 1.000000000000000000 ) ) ;
#20 = CIRCLE ( 'NONE', #54, 6.249999999999998224 ) ;
#21 = ORIENTED_EDGE ( 'NONE', *, *, #65, .T. ) ;
#22 = DIRECTION ( 'NONE',  ( 0.000000000000000000, 0.000000000000000000, 1.000000000000000000 ) ) ;
#23 = CIRCLE ( 'NONE', #67, 6.249999999999998224 ) ;
#24 = MECHANICAL_DESIGN_GEOMETRIC_PRESENTATION_REPRESENTATION (  '', ( #86 ), #100 ) ;
#25 = EDGE_CURVE ( 'NONE', #74, #106, #20, .T. ) ;
#26 = FILL_AREA_STYLE ('',( #130 ) ) ;
#27 = EDGE_CURVE ( 'NONE', #123, #32, #23, .T. ) ;
#28 = SHAPE_DEFINITION_REPRESENTATION ( #2, #140 ) ;
#29 = CARTESIAN_POINT ( 'NONE',  ( 0.000000000000000000, 0.000000000000000000, 1.000000000000000000 ) ) ;
#30 = AXIS2_PLACEMENT_3D ( 'NONE', #114, #133, #9 ) ;
#31 = EDGE_LOOP ( 'NONE', ( #51, #104, #138, #105 ) ) ;
#32 = VERTEX_POINT ( 'NONE', #111 ) ;
#33 = LINE ( 'NONE', #66, #4 ) ;
#34 = ADVANCED_FACE ( 'NONE', ( #84 ), #40, .T. ) ;
#35 = SURFACE_STYLE_USAGE ( .BOTH. , #70 ) ;
#36 = FILL_AREA_STYLE ('',( #59 ) ) ;
#37 = STYLED_ITEM ( 'NONE', ( #83 ), #140 ) ;
#38 = FACE_OUTER_BOUND ( 'NONE', #31, .T. ) ;
#39 =( GEOMETRIC_REPRESENTATION_CONTEXT ( 3 ) GLOBAL_UNCERTAINTY_ASSIGNED_CONTEXT ( ( #79 ) ) GLOBAL_UNIT_ASSIGNED_CONTEXT ( ( #3, #91, #43 ) ) REPRESENTATION_CONTEXT ( 'NONE', 'WORKASPACE' ) );
#40 = PLANE ( 'NONE',  #97 ) ;
#41 = AXIS2_PLACEMENT_3D ( 'NONE', #48, #108, #7 ) ;
#42 = PRESENTATION_LAYER_ASSIGNMENT (  '', '', ( #86 ) ) ;
#43 =( NAMED_UNIT ( * ) SI_UNIT ( $, .STERADIAN. ) SOLID_ANGLE_UNIT ( ) );
#44 =( NAMED_UNIT ( * ) PLANE_ANGLE_UNIT ( ) SI_UNIT ( $, .RADIAN. ) );
#45 = CARTESIAN_POINT ( 'NONE',  ( 6.249999999999998224, 7.654042494670955634E-16, 1.000000000000000000 ) ) ;
#46 = CLOSED_SHELL ( 'NONE', ( #75, #110, #34, #12 ) ) ;
#47 =( NAMED_UNIT ( * ) SI_UNIT ( $, .STERADIAN. ) SOLID_ANGLE_UNIT ( ) );
#48 = CARTESIAN_POINT ( 'NONE',  ( 0.000000000000000000, 0.000000000000000000, 0.000000000000000000 ) ) ;
#49 = AXIS2_PLACEMENT_3D ( 'NONE', #57, #135, #85 ) ;
#50 = DIRECTION ( 'NONE',  ( -0.000000000000000000, -0.000000000000000000, -1.000000000000000000 ) ) ;
#51 = ORIENTED_EDGE ( 'NONE', *, *, #65, .F. ) ;
#52 = PLANE ( 'NONE',  #1 ) ;
#53 = CARTESIAN_POINT ( 'NONE',  ( 0.000000000000000000, 0.000000000000000000, 1.000000000000000000 ) ) ;
#54 = AXIS2_PLACEMENT_3D ( 'NONE', #136, #99, #113 ) ;
#55 =( GEOMETRIC_REPRESENTATION_CONTEXT ( 3 ) GLOBAL_UNCERTAINTY_ASSIGNED_CONTEXT ( ( #90 ) ) GLOBAL_UNIT_ASSIGNED_CONTEXT ( ( #15, #44, #122 ) ) REPRESENTATION_CONTEXT ( 'NONE', 'WORKASPACE' ) );
#56 = CARTESIAN_POINT ( 'NONE',  ( 6.249999999999998224, 7.654042494670955634E-16, 0.000000000000000000 ) ) ;
#57 = CARTESIAN_POINT ( 'NONE',  ( 0.000000000000000000, 0.000000000000000000, 0.000000000000000000 ) ) ;
#58 = EDGE_CURVE ( 'NONE', #123, #74, #33, .T. ) ;
#59 = FILL_AREA_STYLE_COLOUR ( '', #115 ) ;
#60 =( LENGTH_UNIT ( ) NAMED_UNIT ( * ) SI_UNIT ( .MILLI., .METRE. ) );
#61 = ORIENTED_EDGE ( 'NONE', *, *, #27, .F. ) ;
#62 = ORIENTED_EDGE ( 'NONE', *, *, #58, .T. ) ;
#63 = EDGE_LOOP ( 'NONE', ( #107, #11 ) ) ;
#64 = DIRECTION ( 'NONE',  ( 1.000000000000000000, 0.000000000000000000, 0.000000000000000000 ) ) ;
#65 = EDGE_CURVE ( 'NONE', #32, #123, #73, .T. ) ;
#66 = CARTESIAN_POINT ( 'NONE',  ( -6.249999999999998224, 0.000000000000000000, 1.000000000000000000 ) ) ;
#67 = AXIS2_PLACEMENT_3D ( 'NONE', #53, #22, #64 ) ;
#68 = APPLICATION_CONTEXT ( 'automotive_design' ) ;
#69 =( NAMED_UNIT ( * ) PLANE_ANGLE_UNIT ( ) SI_UNIT ( $, .RADIAN. ) );
#70 = SURFACE_SIDE_STYLE ('',( #117 ) ) ;
#71 = CARTESIAN_POINT ( 'NONE',  ( -6.249999999999998224, 0.000000000000000000, 1.000000000000000000 ) ) ;
#72 = FACE_OUTER_BOUND ( 'NONE', #63, .T. ) ;
#73 = CIRCLE ( 'NONE', #30, 6.249999999999998224 ) ;
#74 = VERTEX_POINT ( 'NONE', #95 ) ;
#75 = ADVANCED_FACE ( 'NONE', ( #38 ), #120, .T. ) ;
#76 = DIRECTION ( 'NONE',  ( 1.000000000000000000, 0.000000000000000000, -0.000000000000000000 ) ) ;
#77 = DIRECTION ( 'NONE',  ( 0.000000000000000000, 0.000000000000000000, 1.000000000000000000 ) ) ;
#78 = AXIS2_PLACEMENT_3D ( 'NONE', #17, #119, #131 ) ;
#79 = UNCERTAINTY_MEASURE_WITH_UNIT (LENGTH_MEASURE( 1.000000000000000082E-05 ), #3, 'distance_accuracy_value', 'NONE');
#80 = PRODUCT_DEFINITION ( 'UNKNOWN', '', #8, #89 ) ;
#81 = PRESENTATION_STYLE_ASSIGNMENT (( #101 ) ) ;
#82 = DIRECTION ( 'NONE',  ( -0.000000000000000000, -0.000000000000000000, -1.000000000000000000 ) ) ;
#83 = PRESENTATION_STYLE_ASSIGNMENT (( #35 ) ) ;
#84 = FACE_OUTER_BOUND ( 'NONE', #13, .T. ) ;
#85 = DIRECTION ( 'NONE',  ( 1.000000000000000000, 0.000000000000000000, 0.000000000000000000 ) ) ;
#86 = STYLED_ITEM ( 'NONE', ( #81 ), #139 ) ;
#87 = ORIENTED_EDGE ( 'NONE', *, *, #137, .F. ) ;
#88 = DIRECTION ( 'NONE',  ( 1.000000000000000000, 0.000000000000000000, -0.000000000000000000 ) ) ;
#89 = PRODUCT_DEFINITION_CONTEXT ( 'detailed design', #68, 'design' ) ;
#90 = UNCERTAINTY_MEASURE_WITH_UNIT (LENGTH_MEASURE( 1.000000000000000082E-05 ), #15, 'distance_accuracy_value', 'NONE');
#91 =( NAMED_UNIT ( * ) PLANE_ANGLE_UNIT ( ) SI_UNIT ( $, .RADIAN. ) );
#92 = CYLINDRICAL_SURFACE ( 'NONE', #78, 6.249999999999998224 ) ;
#93 = PRODUCT_RELATED_PRODUCT_CATEGORY ( 'part', '', ( #5 ) ) ;
#94 = PRODUCT_CONTEXT ( 'NONE', #125, 'mechanical' ) ;
#95 = CARTESIAN_POINT ( 'NONE',  ( -6.249999999999998224, 0.000000000000000000, 0.000000000000000000 ) ) ;
#96 = ORIENTED_EDGE ( 'NONE', *, *, #25, .T. ) ;
#97 = AXIS2_PLACEMENT_3D ( 'NONE', #19, #126, #88 ) ;
#98 = CARTESIAN_POINT ( 'NONE',  ( 0.000000000000000000, 0.000000000000000000, 0.000000000000000000 ) ) ;
#99 = DIRECTION ( 'NONE',  ( 0.000000000000000000, 0.000000000000000000, 1.000000000000000000 ) ) ;
#100 =( GEOMETRIC_REPRESENTATION_CONTEXT ( 3 ) GLOBAL_UNCERTAINTY_ASSIGNED_CONTEXT ( ( #127 ) ) GLOBAL_UNIT_ASSIGNED_CONTEXT ( ( #60, #69, #47 ) ) REPRESENTATION_CONTEXT ( 'NONE', 'WORKASPACE' ) );
#101 = SURFACE_STYLE_USAGE ( .BOTH. , #6 ) ;
#102 = EDGE_CURVE ( 'NONE', #106, #74, #132, .T. ) ;
#103 = PRESENTATION_LAYER_ASSIGNMENT (  '', '', ( #37 ) ) ;
#104 = ORIENTED_EDGE ( 'NONE', *, *, #137, .T. ) ;
#105 = ORIENTED_EDGE ( 'NONE', *, *, #58, .F. ) ;
#106 = VERTEX_POINT ( 'NONE', #56 ) ;
#107 = ORIENTED_EDGE ( 'NONE', *, *, #25, .F. ) ;
#108 = DIRECTION ( 'NONE',  ( 0.000000000000000000, 0.000000000000000000, 1.000000000000000000 ) ) ;
#109 = DIRECTION ( 'NONE',  ( -0.000000000000000000, -0.000000000000000000, -1.000000000000000000 ) ) ;
#110 = ADVANCED_FACE ( 'NONE', ( #116 ), #92, .T. ) ;
#111 = CARTESIAN_POINT ( 'NONE',  ( 6.249999999999998224, 7.654042494670955634E-16, 1.000000000000000000 ) ) ;
#112 = APPLICATION_PROTOCOL_DEFINITION ( 'draft international standard', 'automotive_design', 1998, #68 ) ;
#113 = DIRECTION ( 'NONE',  ( 1.000000000000000000, 0.000000000000000000, 0.000000000000000000 ) ) ;
#114 = CARTESIAN_POINT ( 'NONE',  ( 0.000000000000000000, 0.000000000000000000, 1.000000000000000000 ) ) ;
#115 = COLOUR_RGB ( '',0.7921568627450980005, 0.8196078431372548767, 0.9333333333333333481 ) ;
#116 = FACE_OUTER_BOUND ( 'NONE', #10, .T. ) ;
#117 = SURFACE_STYLE_FILL_AREA ( #26 ) ;
#118 = SURFACE_STYLE_FILL_AREA ( #36 ) ;
#119 = DIRECTION ( 'NONE',  ( -0.000000000000000000, -0.000000000000000000, -1.000000000000000000 ) ) ;
#120 = CYLINDRICAL_SURFACE ( 'NONE', #14, 6.249999999999998224 ) ;
#121 = VECTOR ( 'NONE', #109, 1000.000000000000000 ) ;
#122 =( NAMED_UNIT ( * ) SI_UNIT ( $, .STERADIAN. ) SOLID_ANGLE_UNIT ( ) );
#123 = VERTEX_POINT ( 'NONE', #71 ) ;
#124 = ORIENTED_EDGE ( 'NONE', *, *, #27, .T. ) ;
#125 = APPLICATION_CONTEXT ( 'automotive_design' ) ;
#126 = DIRECTION ( 'NONE',  ( 0.000000000000000000, 0.000000000000000000, 1.000000000000000000 ) ) ;
#127 = UNCERTAINTY_MEASURE_WITH_UNIT (LENGTH_MEASURE( 1.000000000000000082E-05 ), #60, 'distance_accuracy_value', 'NONE');
#128 = APPLICATION_PROTOCOL_DEFINITION ( 'draft international standard', 'automotive_design', 1998, #125 ) ;
#129 = DIRECTION ( 'NONE',  ( -1.000000000000000000, 0.000000000000000000, 0.000000000000000000 ) ) ;
#130 = FILL_AREA_STYLE_COLOUR ( '', #134 ) ;
#131 = DIRECTION ( 'NONE',  ( -1.000000000000000000, 0.000000000000000000, 0.000000000000000000 ) ) ;
#132 = CIRCLE ( 'NONE', #41, 6.249999999999998224 ) ;
#133 = DIRECTION ( 'NONE',  ( 0.000000000000000000, 0.000000000000000000, 1.000000000000000000 ) ) ;
#134 = COLOUR_RGB ( '',0.7921568627450980005, 0.8196078431372548767, 0.9333333333333333481 ) ;
#135 = DIRECTION ( 'NONE',  ( 0.000000000000000000, 0.000000000000000000, 1.000000000000000000 ) ) ;
#136 = CARTESIAN_POINT ( 'NONE',  ( 0.000000000000000000, 0.000000000000000000, 0.000000000000000000 ) ) ;
#137 = EDGE_CURVE ( 'NONE', #32, #106, #18, .T. ) ;
#138 = ORIENTED_EDGE ( 'NONE', *, *, #102, .T. ) ;
#139 = MANIFOLD_SOLID_BREP ( 'Boss-Extrude1', #46 ) ;
#140 = ADVANCED_BREP_SHAPE_REPRESENTATION ( '21324', ( #139, #49 ), #39 ) ;
ENDSEC;
END-ISO-10303-21;
