ISO-10303-21;
HEADER;
FILE_DESCRIPTION (( 'STEP AP214' ),
    '1' );
FILE_NAME ('3232-E0W.STEP',
    '2009-12-21T16:54:47',
    ( ' ' ),
    ( ' ' ),
    'SwSTEP 2.0',
    'SolidWorks 2009',
    '' );
FILE_SCHEMA (( 'AUTOMOTIVE_DESIGN' ));
ENDSEC;

DATA;
#1 = SURFACE_STYLE_USAGE ( .BOTH. , #18 ) ;
#2 = DIRECTION ( 'NONE',  ( -1.000000000000000000, 0.0000000000000000000, 0.0000000000000000000 ) ) ;
#3 = PRESENTATION_STYLE_ASSIGNMENT (( #1 ) ) ;
#4 = DIRECTION ( 'NONE',  ( 0.0000000000000000000, 1.000000000000000000, 0.0000000000000000000 ) ) ;
#5 = STYLED_ITEM ( 'NONE', ( #3 ), #249 ) ;
#6 = PRESENTATION_LAYER_ASSIGNMENT (  '', '', ( #5 ) ) ;
#7 = MECHANICAL_DESIGN_GEOMETRIC_PRESENTATION_REPRESENTATION (  '', ( #5 ), #11 ) ;
#8 =( LENGTH_UNIT ( ) NAMED_UNIT ( * ) SI_UNIT ( .MILLI., .METRE. ) );
#9 = SPHERICAL_SURFACE ( 'NONE', #13, 6.180000000000002400 ) ;
#10 = UNCERTAINTY_MEASURE_WITH_UNIT (LENGTH_MEASURE( 1.000000000000000100E-005 ), #8, 'distance_accuracy_value', 'NONE');
#11 =( GEOMETRIC_REPRESENTATION_CONTEXT ( 3 ) GLOBAL_UNCERTAINTY_ASSIGNED_CONTEXT ( ( #10 ) ) GLOBAL_UNIT_ASSIGNED_CONTEXT ( ( #8, #14, #15 ) ) REPRESENTATION_CONTEXT ( 'NONE', 'WORKASPACE' ) );
#12 = CARTESIAN_POINT ( 'NONE',  ( 0.0000000000000000000, 0.0000000000000000000, -4.460000000000001700 ) ) ;
#13 = AXIS2_PLACEMENT_3D ( 'NONE', #12, #2, #4 ) ;
#14 =( NAMED_UNIT ( * ) PLANE_ANGLE_UNIT ( ) SI_UNIT ( $, .RADIAN. ) );
#15 =( NAMED_UNIT ( * ) SI_UNIT ( $, .STERADIAN. ) SOLID_ANGLE_UNIT ( ) );
#16 = VECTOR ( 'NONE', #17, 1000.000000000000000 ) ;
#17 = DIRECTION ( 'NONE',  ( -0.0000000000000000000, -0.0000000000000000000, 1.000000000000000000 ) ) ;
#18 = SURFACE_SIDE_STYLE ('',( #19 ) ) ;
#19 = SURFACE_STYLE_FILL_AREA ( #20 ) ;
#20 = FILL_AREA_STYLE ('',( #21 ) ) ;
#21 = FILL_AREA_STYLE_COLOUR ( '', #22 ) ;
#22 = COLOUR_RGB ( '',0.9568627450980391500, 0.9490196078431372100, 0.9607843137254902200 ) ;
#23 = FACE_OUTER_BOUND ( 'NONE', #250, .T. ) ;
#24 = FILL_AREA_STYLE_COLOUR ( '', #80 ) ;
#25 = DIRECTION ( 'NONE',  ( 1.000000000000000000, 0.0000000000000000000, 0.0000000000000000000 ) ) ;
#26 = SHAPE_DEFINITION_REPRESENTATION ( #68, #62 ) ;
#27 = AXIS2_PLACEMENT_3D ( 'NONE', #33, #81, #25 ) ;
#28 = PRESENTATION_LAYER_ASSIGNMENT (  '', '', ( #29 ) ) ;
#29 = STYLED_ITEM ( 'NONE', ( #85 ), #252 ) ;
#30 = SURFACE_SIDE_STYLE ('',( #79 ) ) ;
#31 = SURFACE_STYLE_USAGE ( .BOTH. , #30 ) ;
#32 = FILL_AREA_STYLE ('',( #24 ) ) ;
#33 = CARTESIAN_POINT ( 'NONE',  ( 0.0000000000000000000, 0.0000000000000000000, 0.0000000000000000000 ) ) ;
#34 = CARTESIAN_POINT ( 'NONE',  ( -4.500000000000000900, 5.510728592200698600E-016, -1.720000000000000200 ) ) ;
#35 = CARTESIAN_POINT ( 'NONE',  ( 4.500000000000000900, 0.0000000000000000000, -1.720000000000000200 ) ) ;
#36 = DIRECTION ( 'NONE',  ( 1.000000000000000000, 0.0000000000000000000, 0.0000000000000000000 ) ) ;
#37 = DIRECTION ( 'NONE',  ( -0.0000000000000000000, -0.0000000000000000000, 1.000000000000000000 ) ) ;
#38 = CARTESIAN_POINT ( 'NONE',  ( 0.0000000000000000000, 0.0000000000000000000, -1.720000000000000200 ) ) ;
#39 = AXIS2_PLACEMENT_3D ( 'NONE', #38, #37, #36 ) ;
#40 = DIRECTION ( 'NONE',  ( 1.000000000000000000, 0.0000000000000000000, 0.0000000000000000000 ) ) ;
#41 = DIRECTION ( 'NONE',  ( -0.0000000000000000000, -0.0000000000000000000, 1.000000000000000000 ) ) ;
#42 = CARTESIAN_POINT ( 'NONE',  ( 0.0000000000000000000, 0.0000000000000000000, 4.308132045400366600 ) ) ;
#43 = AXIS2_PLACEMENT_3D ( 'NONE', #42, #41, #40 ) ;
#44 = CIRCLE ( 'NONE', #39, 4.500000000000000900 ) ;
#45 = CYLINDRICAL_SURFACE ( 'NONE', #43, 4.500000000000000900 ) ;
#46 =( GEOMETRIC_REPRESENTATION_CONTEXT ( 3 ) GLOBAL_UNCERTAINTY_ASSIGNED_CONTEXT ( ( #47 ) ) GLOBAL_UNIT_ASSIGNED_CONTEXT ( ( #87, #86, #48 ) ) REPRESENTATION_CONTEXT ( 'NONE', 'WORKASPACE' ) );
#47 = UNCERTAINTY_MEASURE_WITH_UNIT (LENGTH_MEASURE( 1.000000000000000100E-005 ), #87, 'distance_accuracy_value', 'NONE');
#48 =( NAMED_UNIT ( * ) SI_UNIT ( $, .STERADIAN. ) SOLID_ANGLE_UNIT ( ) );
#49 =( NAMED_UNIT ( * ) PLANE_ANGLE_UNIT ( ) SI_UNIT ( $, .RADIAN. ) );
#50 =( LENGTH_UNIT ( ) NAMED_UNIT ( * ) SI_UNIT ( .MILLI., .METRE. ) );
#51 = MECHANICAL_DESIGN_GEOMETRIC_PRESENTATION_REPRESENTATION (  '', ( #53 ), #82 ) ;
#52 = PRESENTATION_LAYER_ASSIGNMENT (  '', '', ( #53 ) ) ;
#53 = STYLED_ITEM ( 'NONE', ( #54 ), #62 ) ;
#54 = PRESENTATION_STYLE_ASSIGNMENT (( #55 ) ) ;
#55 = SURFACE_STYLE_USAGE ( .BOTH. , #56 ) ;
#56 = SURFACE_SIDE_STYLE ('',( #57 ) ) ;
#57 = SURFACE_STYLE_FILL_AREA ( #58 ) ;
#58 = FILL_AREA_STYLE ('',( #59 ) ) ;
#59 = FILL_AREA_STYLE_COLOUR ( '', #60 ) ;
#60 = COLOUR_RGB ( '',0.7960784313725489700, 0.8235294117647058400, 0.9372549019607843100 ) ;
#61 = APPLICATION_CONTEXT ( 'automotive_design' ) ;
#62 = ADVANCED_BREP_SHAPE_REPRESENTATION ( '3232-E0W', ( #252, #27 ), #63 ) ;
#63 =( GEOMETRIC_REPRESENTATION_CONTEXT ( 3 ) GLOBAL_UNCERTAINTY_ASSIGNED_CONTEXT ( ( #64 ) ) GLOBAL_UNIT_ASSIGNED_CONTEXT ( ( #67, #66, #65 ) ) REPRESENTATION_CONTEXT ( 'NONE', 'WORKASPACE' ) );
#64 = UNCERTAINTY_MEASURE_WITH_UNIT (LENGTH_MEASURE( 1.000000000000000100E-005 ), #67, 'distance_accuracy_value', 'NONE');
#65 =( NAMED_UNIT ( * ) SI_UNIT ( $, .STERADIAN. ) SOLID_ANGLE_UNIT ( ) );
#66 =( NAMED_UNIT ( * ) PLANE_ANGLE_UNIT ( ) SI_UNIT ( $, .RADIAN. ) );
#67 =( LENGTH_UNIT ( ) NAMED_UNIT ( * ) SI_UNIT ( .MILLI., .METRE. ) );
#68 = PRODUCT_DEFINITION_SHAPE ( 'NONE', 'NONE',  #71 ) ;
#69 = PRODUCT_RELATED_PRODUCT_CATEGORY ( 'part', '', ( #75 ) ) ;
#70 = PRODUCT_DEFINITION_FORMATION_WITH_SPECIFIED_SOURCE ( 'ANY', '', #75, .NOT_KNOWN. ) ;
#71 = PRODUCT_DEFINITION ( 'UNKNOWN', '', #70, #72 ) ;
#72 = PRODUCT_DEFINITION_CONTEXT ( 'detailed design', #74, 'design' ) ;
#73 = APPLICATION_PROTOCOL_DEFINITION ( 'draft international standard', 'automotive_design', 1998, #74 ) ;
#74 = APPLICATION_CONTEXT ( 'automotive_design' ) ;
#75 = PRODUCT ( '3232-E0W', '3232-E0W', '', ( #76 ) ) ;
#76 = PRODUCT_CONTEXT ( 'NONE', #61, 'mechanical' ) ;
#77 = APPLICATION_PROTOCOL_DEFINITION ( 'draft international standard', 'automotive_design', 1998, #61 ) ;
#78 =( NAMED_UNIT ( * ) PLANE_ANGLE_UNIT ( ) SI_UNIT ( $, .RADIAN. ) );
#79 = SURFACE_STYLE_FILL_AREA ( #32 ) ;
#80 = COLOUR_RGB ( '',0.7960784313725489700, 0.8235294117647058400, 0.9372549019607843100 ) ;
#81 = DIRECTION ( 'NONE',  ( 0.0000000000000000000, 0.0000000000000000000, 1.000000000000000000 ) ) ;
#82 =( GEOMETRIC_REPRESENTATION_CONTEXT ( 3 ) GLOBAL_UNCERTAINTY_ASSIGNED_CONTEXT ( ( #83 ) ) GLOBAL_UNIT_ASSIGNED_CONTEXT ( ( #50, #49, #84 ) ) REPRESENTATION_CONTEXT ( 'NONE', 'WORKASPACE' ) );
#83 = UNCERTAINTY_MEASURE_WITH_UNIT (LENGTH_MEASURE( 1.000000000000000100E-005 ), #50, 'distance_accuracy_value', 'NONE');
#84 =( NAMED_UNIT ( * ) SI_UNIT ( $, .STERADIAN. ) SOLID_ANGLE_UNIT ( ) );
#85 = PRESENTATION_STYLE_ASSIGNMENT (( #31 ) ) ;
#86 =( NAMED_UNIT ( * ) PLANE_ANGLE_UNIT ( ) SI_UNIT ( $, .RADIAN. ) );
#87 =( LENGTH_UNIT ( ) NAMED_UNIT ( * ) SI_UNIT ( .MILLI., .METRE. ) );
#88 = MECHANICAL_DESIGN_GEOMETRIC_PRESENTATION_REPRESENTATION (  '', ( #90 ), #46 ) ;
#89 = PRESENTATION_LAYER_ASSIGNMENT (  '', '', ( #90 ) ) ;
#90 = STYLED_ITEM ( 'NONE', ( #91 ), #253 ) ;
#91 = PRESENTATION_STYLE_ASSIGNMENT (( #92 ) ) ;
#92 = SURFACE_STYLE_USAGE ( .BOTH. , #93 ) ;
#93 = SURFACE_SIDE_STYLE ('',( #94 ) ) ;
#94 = SURFACE_STYLE_FILL_AREA ( #95 ) ;
#95 = FILL_AREA_STYLE ('',( #96 ) ) ;
#96 = FILL_AREA_STYLE_COLOUR ( '', #97 ) ;
#97 = COLOUR_RGB ( '',0.9568627450980391500, 0.9490196078431372100, 0.9607843137254902200 ) ;
#98 = FACE_OUTER_BOUND ( 'NONE', #254, .T. ) ;
#99 =( GEOMETRIC_REPRESENTATION_CONTEXT ( 3 ) GLOBAL_UNCERTAINTY_ASSIGNED_CONTEXT ( ( #100 ) ) GLOBAL_UNIT_ASSIGNED_CONTEXT ( ( #102, #78, #101 ) ) REPRESENTATION_CONTEXT ( 'NONE', 'WORKASPACE' ) );
#100 = UNCERTAINTY_MEASURE_WITH_UNIT (LENGTH_MEASURE( 1.000000000000000100E-005 ), #102, 'distance_accuracy_value', 'NONE');
#101 =( NAMED_UNIT ( * ) SI_UNIT ( $, .STERADIAN. ) SOLID_ANGLE_UNIT ( ) );
#102 =( LENGTH_UNIT ( ) NAMED_UNIT ( * ) SI_UNIT ( .MILLI., .METRE. ) );
#103 = MECHANICAL_DESIGN_GEOMETRIC_PRESENTATION_REPRESENTATION (  '', ( #29 ), #99 ) ;
#104 = ORIENTED_EDGE ( 'NONE', *, *, #239, .F. ) ;
#105 = EDGE_LOOP ( 'NONE', ( #106, #113, #109, #110 ) ) ;
#106 = ORIENTED_EDGE ( 'NONE', *, *, #131, .F. ) ;
#107 = ADVANCED_FACE ( 'NONE', ( #117 ), #140, .T. ) ;
#108 = EDGE_LOOP ( 'NONE', ( #104, #112, #233, #234, #235 ) ) ;
#109 = ORIENTED_EDGE ( 'NONE', *, *, #245, .T. ) ;
#110 = ORIENTED_EDGE ( 'NONE', *, *, #119, .T. ) ;
#111 = ADVANCED_FACE ( 'NONE', ( #146 ), #207, .T. ) ;
#112 = ORIENTED_EDGE ( 'NONE', *, *, #232, .T. ) ;
#113 = ORIENTED_EDGE ( 'NONE', *, *, #114, .T. ) ;
#114 = EDGE_CURVE ( 'NONE', #132, #246, #192, .T. ) ;
#115 = ORIENTED_EDGE ( 'NONE', *, *, #131, .T. ) ;
#116 = COLOUR_RGB ( '',0.9568627450980391500, 0.9490196078431372100, 0.9607843137254902200 ) ;
#117 = FACE_OUTER_BOUND ( 'NONE', #105, .T. ) ;
#118 = ORIENTED_EDGE ( 'NONE', *, *, #119, .F. ) ;
#119 = EDGE_CURVE ( 'NONE', #243, #135, #186, .T. ) ;
#120 =( NAMED_UNIT ( * ) PLANE_ANGLE_UNIT ( ) SI_UNIT ( $, .RADIAN. ) );
#121 =( LENGTH_UNIT ( ) NAMED_UNIT ( * ) SI_UNIT ( .MILLI., .METRE. ) );
#122 = MECHANICAL_DESIGN_GEOMETRIC_PRESENTATION_REPRESENTATION (  '', ( #124 ), #137 ) ;
#123 = PRESENTATION_LAYER_ASSIGNMENT (  '', '', ( #124 ) ) ;
#124 = STYLED_ITEM ( 'NONE', ( #125 ), #107 ) ;
#125 = PRESENTATION_STYLE_ASSIGNMENT (( #126 ) ) ;
#126 = SURFACE_STYLE_USAGE ( .BOTH. , #127 ) ;
#127 = SURFACE_SIDE_STYLE ('',( #128 ) ) ;
#128 = SURFACE_STYLE_FILL_AREA ( #129 ) ;
#129 = FILL_AREA_STYLE ('',( #130 ) ) ;
#130 = FILL_AREA_STYLE_COLOUR ( '', #116 ) ;
#131 = EDGE_CURVE ( 'NONE', #132, #135, #182, .T. ) ;
#132 = VERTEX_POINT ( 'NONE', #178 ) ;
#133 = ORIENTED_EDGE ( 'NONE', *, *, #134, .T. ) ;
#134 = EDGE_CURVE ( 'NONE', #240, #132, #177, .T. ) ;
#135 = VERTEX_POINT ( 'NONE', #172 ) ;
#136 = UNCERTAINTY_MEASURE_WITH_UNIT (LENGTH_MEASURE( 1.000000000000000100E-005 ), #121, 'distance_accuracy_value', 'NONE');
#137 =( GEOMETRIC_REPRESENTATION_CONTEXT ( 3 ) GLOBAL_UNCERTAINTY_ASSIGNED_CONTEXT ( ( #136 ) ) GLOBAL_UNIT_ASSIGNED_CONTEXT ( ( #121, #120, #147 ) ) REPRESENTATION_CONTEXT ( 'NONE', 'WORKASPACE' ) );
#138 = FILL_AREA_STYLE_COLOUR ( '', #139 ) ;
#139 = COLOUR_RGB ( '',0.9568627450980391500, 0.9490196078431372100, 0.9607843137254902200 ) ;
#140 = SPHERICAL_SURFACE ( 'NONE', #148, 6.180000000000002400 ) ;
#141 = DIRECTION ( 'NONE',  ( 0.0000000000000000000, 1.000000000000000000, 0.0000000000000000000 ) ) ;
#142 = DIRECTION ( 'NONE',  ( -1.000000000000000000, 0.0000000000000000000, 0.0000000000000000000 ) ) ;
#143 = SURFACE_STYLE_FILL_AREA ( #144 ) ;
#144 = FILL_AREA_STYLE ('',( #138 ) ) ;
#145 = CARTESIAN_POINT ( 'NONE',  ( 0.0000000000000000000, 0.0000000000000000000, -4.460000000000001700 ) ) ;
#146 = FACE_OUTER_BOUND ( 'NONE', #108, .T. ) ;
#147 =( NAMED_UNIT ( * ) SI_UNIT ( $, .STERADIAN. ) SOLID_ANGLE_UNIT ( ) );
#148 = AXIS2_PLACEMENT_3D ( 'NONE', #145, #142, #141 ) ;
#149 =( LENGTH_UNIT ( ) NAMED_UNIT ( * ) SI_UNIT ( .MILLI., .METRE. ) );
#150 = MECHANICAL_DESIGN_GEOMETRIC_PRESENTATION_REPRESENTATION (  '', ( #152 ), #231 ) ;
#151 = PRESENTATION_LAYER_ASSIGNMENT (  '', '', ( #152 ) ) ;
#152 = STYLED_ITEM ( 'NONE', ( #153 ), #111 ) ;
#153 = PRESENTATION_STYLE_ASSIGNMENT (( #154 ) ) ;
#154 = SURFACE_STYLE_USAGE ( .BOTH. , #155 ) ;
#155 = SURFACE_SIDE_STYLE ('',( #143 ) ) ;
#156 = UNCERTAINTY_MEASURE_WITH_UNIT (LENGTH_MEASURE( 1.000000000000000100E-005 ), #149, 'distance_accuracy_value', 'NONE');
#157 =( NAMED_UNIT ( * ) SI_UNIT ( $, .STERADIAN. ) SOLID_ANGLE_UNIT ( ) );
#158 =( NAMED_UNIT ( * ) PLANE_ANGLE_UNIT ( ) SI_UNIT ( $, .RADIAN. ) );
#159 = PRESENTATION_STYLE_ASSIGNMENT (( #160 ) ) ;
#160 = SURFACE_STYLE_USAGE ( .BOTH. , #161 ) ;
#161 = SURFACE_SIDE_STYLE ('',( #162 ) ) ;
#162 = SURFACE_STYLE_FILL_AREA ( #163 ) ;
#163 = FILL_AREA_STYLE ('',( #171 ) ) ;
#164 = COLOUR_RGB ( '',0.9568627450980391500, 0.9490196078431372100, 0.9607843137254902200 ) ;
#165 = FACE_OUTER_BOUND ( 'NONE', #237, .T. ) ;
#166 = DIRECTION ( 'NONE',  ( 1.000000000000000000, 0.0000000000000000000, 0.0000000000000000000 ) ) ;
#167 = DIRECTION ( 'NONE',  ( -0.0000000000000000000, -0.0000000000000000000, 1.000000000000000000 ) ) ;
#168 = CARTESIAN_POINT ( 'NONE',  ( 0.0000000000000000000, 0.0000000000000000000, -1.720000000000000200 ) ) ;
#169 = AXIS2_PLACEMENT_3D ( 'NONE', #168, #167, #166 ) ;
#170 = CIRCLE ( 'NONE', #169, 4.500000000000000900 ) ;
#171 = FILL_AREA_STYLE_COLOUR ( '', #164 ) ;
#172 = CARTESIAN_POINT ( 'NONE',  ( 0.0000000000000000000, 3.784033633311147400E-016, 1.720000000000000200 ) ) ;
#173 = DIRECTION ( 'NONE',  ( 1.000000000000000000, 0.0000000000000000000, 0.0000000000000000000 ) ) ;
#174 = DIRECTION ( 'NONE',  ( -0.0000000000000000000, -0.0000000000000000000, 1.000000000000000000 ) ) ;
#175 = CARTESIAN_POINT ( 'NONE',  ( 0.0000000000000000000, 0.0000000000000000000, -0.2241529772665290200 ) ) ;
#176 = AXIS2_PLACEMENT_3D ( 'NONE', #175, #174, #173 ) ;
#177 = CIRCLE ( 'NONE', #176, 4.500000000000000900 ) ;
#178 = CARTESIAN_POINT ( 'NONE',  ( -5.510728592200698600E-016, -4.500000000000000900, -0.2241529772665294400 ) ) ;
#179 = DIRECTION ( 'NONE',  ( -1.224606353822377300E-016, -1.000000000000000000, 0.0000000000000000000 ) ) ;
#180 = DIRECTION ( 'NONE',  ( -1.000000000000000000, 1.224606353822377300E-016, 0.0000000000000000000 ) ) ;
#181 = AXIS2_PLACEMENT_3D ( 'NONE', #187, #180, #179 ) ;
#182 = CIRCLE ( 'NONE', #181, 6.180000000000002400 ) ;
#183 = DIRECTION ( 'NONE',  ( 0.0000000000000000000, 0.0000000000000000000, -1.000000000000000000 ) ) ;
#184 = DIRECTION ( 'NONE',  ( 1.000000000000000000, 0.0000000000000000000, 0.0000000000000000000 ) ) ;
#185 = AXIS2_PLACEMENT_3D ( 'NONE', #193, #184, #183 ) ;
#186 = CIRCLE ( 'NONE', #185, 6.180000000000001500 ) ;
#187 = CARTESIAN_POINT ( 'NONE',  ( 0.0000000000000000000, 0.0000000000000000000, -4.460000000000001700 ) ) ;
#188 = DIRECTION ( 'NONE',  ( 1.000000000000000000, 0.0000000000000000000, 0.0000000000000000000 ) ) ;
#189 = DIRECTION ( 'NONE',  ( -0.0000000000000000000, -0.0000000000000000000, 1.000000000000000000 ) ) ;
#190 = CARTESIAN_POINT ( 'NONE',  ( 0.0000000000000000000, 0.0000000000000000000, -0.2241529772665290200 ) ) ;
#191 = AXIS2_PLACEMENT_3D ( 'NONE', #190, #189, #188 ) ;
#192 = CIRCLE ( 'NONE', #191, 4.500000000000000900 ) ;
#193 = CARTESIAN_POINT ( 'NONE',  ( 0.0000000000000000000, 0.0000000000000000000, -4.460000000000001700 ) ) ;
#194 = DIRECTION ( 'NONE',  ( 1.000000000000000000, 0.0000000000000000000, 0.0000000000000000000 ) ) ;
#195 = DIRECTION ( 'NONE',  ( -0.0000000000000000000, -0.0000000000000000000, 1.000000000000000000 ) ) ;
#196 = CARTESIAN_POINT ( 'NONE',  ( 0.0000000000000000000, 0.0000000000000000000, 4.308132045400366600 ) ) ;
#197 = CARTESIAN_POINT ( 'NONE',  ( 4.500000000000000900, 0.0000000000000000000, 4.308132045400366600 ) ) ;
#198 = LINE ( 'NONE', #197, #16 ) ;
#199 = CARTESIAN_POINT ( 'NONE',  ( 4.500000000000000900, 0.0000000000000000000, -0.2241529772665290200 ) ) ;
#200 = DIRECTION ( 'NONE',  ( 1.000000000000000000, 0.0000000000000000000, 0.0000000000000000000 ) ) ;
#201 = DIRECTION ( 'NONE',  ( -0.0000000000000000000, -0.0000000000000000000, 1.000000000000000000 ) ) ;
#202 = CARTESIAN_POINT ( 'NONE',  ( 0.0000000000000000000, 0.0000000000000000000, -0.2241529772665290200 ) ) ;
#203 = AXIS2_PLACEMENT_3D ( 'NONE', #202, #201, #200 ) ;
#204 = CIRCLE ( 'NONE', #203, 4.500000000000000900 ) ;
#205 = CARTESIAN_POINT ( 'NONE',  ( 0.0000000000000000000, 4.500000000000000900, -0.2241529772665294400 ) ) ;
#206 = AXIS2_PLACEMENT_3D ( 'NONE', #196, #195, #194 ) ;
#207 = CYLINDRICAL_SURFACE ( 'NONE', #206, 4.500000000000000900 ) ;
#208 = DIRECTION ( 'NONE',  ( 1.000000000000000000, 0.0000000000000000000, 0.0000000000000000000 ) ) ;
#209 = DIRECTION ( 'NONE',  ( -0.0000000000000000000, -0.0000000000000000000, 1.000000000000000000 ) ) ;
#210 = CARTESIAN_POINT ( 'NONE',  ( 0.0000000000000000000, 0.0000000000000000000, -0.2241529772665290200 ) ) ;
#211 = AXIS2_PLACEMENT_3D ( 'NONE', #210, #209, #208 ) ;
#212 = CIRCLE ( 'NONE', #211, 4.500000000000000900 ) ;
#213 = CARTESIAN_POINT ( 'NONE',  ( -4.500000000000000900, 5.510728592200698600E-016, -0.2241529772665290200 ) ) ;
#214 = DIRECTION ( 'NONE',  ( -0.0000000000000000000, -0.0000000000000000000, 1.000000000000000000 ) ) ;
#215 = VECTOR ( 'NONE', #214, 1000.000000000000000 ) ;
#216 = CARTESIAN_POINT ( 'NONE',  ( -4.500000000000000900, 5.510728592200698600E-016, 4.308132045400366600 ) ) ;
#217 = LINE ( 'NONE', #216, #215 ) ;
#218 = DIRECTION ( 'NONE',  ( 1.000000000000000000, 0.0000000000000000000, 0.0000000000000000000 ) ) ;
#219 = DIRECTION ( 'NONE',  ( 0.0000000000000000000, -0.0000000000000000000, 1.000000000000000000 ) ) ;
#220 = CARTESIAN_POINT ( 'NONE',  ( 0.0000000000000000000, 6.319177483600342400E-016, -1.720000000000000000 ) ) ;
#221 = AXIS2_PLACEMENT_3D ( 'NONE', #220, #219, #218 ) ;
#222 = PLANE ( 'NONE',  #221 ) ;
#223 =( GEOMETRIC_REPRESENTATION_CONTEXT ( 3 ) GLOBAL_UNCERTAINTY_ASSIGNED_CONTEXT ( ( #224 ) ) GLOBAL_UNIT_ASSIGNED_CONTEXT ( ( #227, #226, #225 ) ) REPRESENTATION_CONTEXT ( 'NONE', 'WORKASPACE' ) );
#224 = UNCERTAINTY_MEASURE_WITH_UNIT (LENGTH_MEASURE( 1.000000000000000100E-005 ), #227, 'distance_accuracy_value', 'NONE');
#225 =( NAMED_UNIT ( * ) SI_UNIT ( $, .STERADIAN. ) SOLID_ANGLE_UNIT ( ) );
#226 =( NAMED_UNIT ( * ) PLANE_ANGLE_UNIT ( ) SI_UNIT ( $, .RADIAN. ) );
#227 =( LENGTH_UNIT ( ) NAMED_UNIT ( * ) SI_UNIT ( .MILLI., .METRE. ) );
#228 = MECHANICAL_DESIGN_GEOMETRIC_PRESENTATION_REPRESENTATION (  '', ( #230 ), #223 ) ;
#229 = PRESENTATION_LAYER_ASSIGNMENT (  '', '', ( #230 ) ) ;
#230 = STYLED_ITEM ( 'NONE', ( #159 ), #236 ) ;
#231 =( GEOMETRIC_REPRESENTATION_CONTEXT ( 3 ) GLOBAL_UNCERTAINTY_ASSIGNED_CONTEXT ( ( #156 ) ) GLOBAL_UNIT_ASSIGNED_CONTEXT ( ( #149, #158, #157 ) ) REPRESENTATION_CONTEXT ( 'NONE', 'WORKASPACE' ) );
#232 = EDGE_CURVE ( 'NONE', #258, #257, #170, .T. ) ;
#233 = ORIENTED_EDGE ( 'NONE', *, *, #248, .T. ) ;
#234 = ORIENTED_EDGE ( 'NONE', *, *, #114, .F. ) ;
#235 = ORIENTED_EDGE ( 'NONE', *, *, #134, .F. ) ;
#236 = ADVANCED_FACE ( 'NONE', ( #165 ), #222, .F. ) ;
#237 = EDGE_LOOP ( 'NONE', ( #259, #260 ) ) ;
#238 = ORIENTED_EDGE ( 'NONE', *, *, #239, .T. ) ;
#239 = EDGE_CURVE ( 'NONE', #258, #240, #217, .T. ) ;
#240 = VERTEX_POINT ( 'NONE', #213 ) ;
#241 = ORIENTED_EDGE ( 'NONE', *, *, #242, .F. ) ;
#242 = EDGE_CURVE ( 'NONE', #243, #240, #212, .T. ) ;
#243 = VERTEX_POINT ( 'NONE', #205 ) ;
#244 = ORIENTED_EDGE ( 'NONE', *, *, #245, .F. ) ;
#245 = EDGE_CURVE ( 'NONE', #246, #243, #204, .T. ) ;
#246 = VERTEX_POINT ( 'NONE', #199 ) ;
#247 = ORIENTED_EDGE ( 'NONE', *, *, #248, .F. ) ;
#248 = EDGE_CURVE ( 'NONE', #257, #246, #198, .T. ) ;
#249 = ADVANCED_FACE ( 'NONE', ( #23 ), #9, .T. ) ;
#250 = EDGE_LOOP ( 'NONE', ( #251, #133, #115, #118 ) ) ;
#251 = ORIENTED_EDGE ( 'NONE', *, *, #242, .T. ) ;
#252 = MANIFOLD_SOLID_BREP ( 'NONE', #261 ) ;
#253 = ADVANCED_FACE ( 'NONE', ( #98 ), #45, .T. ) ;
#254 = EDGE_LOOP ( 'NONE', ( #255, #238, #241, #244, #247 ) ) ;
#255 = ORIENTED_EDGE ( 'NONE', *, *, #256, .T. ) ;
#256 = EDGE_CURVE ( 'NONE', #257, #258, #44, .T. ) ;
#257 = VERTEX_POINT ( 'NONE', #35 ) ;
#258 = VERTEX_POINT ( 'NONE', #34 ) ;
#259 = ORIENTED_EDGE ( 'NONE', *, *, #256, .F. ) ;
#260 = ORIENTED_EDGE ( 'NONE', *, *, #232, .F. ) ;
#261 = CLOSED_SHELL ( 'NONE', ( #253, #249, #107, #111, #236 ) ) ;
ENDSEC;
END-ISO-10303-21;
