ISO-10303-21;
HEADER;
FILE_DESCRIPTION (( 'STEP AP203' ),
    '1' );
FILE_NAME ('Web Model 68157_21017.step',
    '2022-03-15T19:23:43',
    ( '' ),
    ( '' ),
    'SwSTEP 2.0',
    'SolidWorks 2021',
    '' );
FILE_SCHEMA (( 'CONFIG_CONTROL_DESIGN' ));
ENDSEC;

DATA;
#1 = ORIENTED_EDGE ( 'NONE', *, *, #31, .T. ) ;
#2 = CIRCLE ( 'NONE', #151, 6.349999999999999645 ) ;
#3 = CYLINDRICAL_SURFACE ( 'NONE', #155, 6.349999999999999645 ) ;
#4 = DIRECTION ( 'NONE',  ( 1.000000000000000000, 0.000000000000000000, 0.000000000000000000 ) ) ;
#5 = VECTOR ( 'NONE', #94, 1000.000000000000000 ) ;
#6 = FACE_OUTER_BOUND ( 'NONE', #60, .T. ) ;
#7 =( LENGTH_UNIT ( ) NAMED_UNIT ( * ) SI_UNIT ( .MILLI., .METRE. ) );
#8 = ADVANCED_FACE ( 'NONE', ( #75 ), #46, .T. ) ;
#9 = DIRECTION ( 'NONE',  ( 0.000000000000000000, 0.000000000000000000, 1.000000000000000000 ) ) ;
#10 = APPROVAL_DATE_TIME ( #162, #128 ) ;
#11 = APPROVAL_DATE_TIME ( #112, #173 ) ;
#12 = APPROVAL_DATE_TIME ( #122, #57 ) ;
#13 = CC_DESIGN_PERSON_AND_ORGANIZATION_ASSIGNMENT ( #174, #58, ( #27 ) ) ;
#14 = APPLICATION_CONTEXT ( 'configuration controlled 3d designs of mechanical parts and assemblies' ) ;
#15 = ORIENTED_EDGE ( 'NONE', *, *, #120, .T. ) ;
#16 = APPROVAL_PERSON_ORGANIZATION ( #35, #57, #19 ) ;
#17 = ADVANCED_FACE ( 'NONE', ( #166 ), #3, .T. ) ;
#18 = APPLICATION_PROTOCOL_DEFINITION ( 'international standard', 'config_control_design', 1994, #74 ) ;
#19 = APPROVAL_ROLE ( '' ) ;
#20 = AXIS2_PLACEMENT_3D ( 'NONE', #71, #95, #172 ) ;
#21 = DIRECTION ( 'NONE',  ( 1.000000000000000000, 0.000000000000000000, 0.000000000000000000 ) ) ;
#22 = CC_DESIGN_PERSON_AND_ORGANIZATION_ASSIGNMENT ( #29, #59, ( #150 ) ) ;
#23 = DIRECTION ( 'NONE',  ( 0.000000000000000000, 0.000000000000000000, 1.000000000000000000 ) ) ;
#24 = APPLICATION_PROTOCOL_DEFINITION ( 'international standard', 'config_control_design', 1994, #14 ) ;
#25 = PRODUCT_RELATED_PRODUCT_CATEGORY ( 'detail', '', ( #41 ) ) ;
#26 = DATE_AND_TIME ( #88, #90 ) ;
#27 = SECURITY_CLASSIFICATION ( '', '', #39 ) ;
#28 = DATE_TIME_ROLE ( 'classification_date' ) ;
#29 = PERSON_AND_ORGANIZATION ( #170, #68 ) ;
#30 = CC_DESIGN_SECURITY_CLASSIFICATION ( #27, ( #45 ) ) ;
#31 = EDGE_CURVE ( 'NONE', #168, #140, #102, .T. ) ;
#32 = EDGE_LOOP ( 'NONE', ( #143, #141, #138, #114 ) ) ;
#33 = CARTESIAN_POINT ( 'NONE',  ( -6.349999999999999645, 0.000000000000000000, 0.5000000000000000000 ) ) ;
#34 = LINE ( 'NONE', #38, #5 ) ;
#35 = PERSON_AND_ORGANIZATION ( #170, #68 ) ;
#36 = ADVANCED_FACE ( 'NONE', ( #106 ), #117, .T. ) ;
#37 = DIRECTION ( 'NONE',  ( -0.000000000000000000, -0.000000000000000000, -1.000000000000000000 ) ) ;
#38 = CARTESIAN_POINT ( 'NONE',  ( 6.349999999999999645, 7.776507174585692163E-16, 0.5000000000000000000 ) ) ;
#39 = SECURITY_CLASSIFICATION_LEVEL ( 'unclassified' ) ;
#40 = CALENDAR_DATE ( 2022, 15, 3 ) ;
#41 = PRODUCT ( 'Web Model 68157_21017', 'Web Model 68157_21017', '', ( #92 ) ) ;
#42 = EDGE_CURVE ( 'NONE', #157, #140, #52, .T. ) ;
#43 = APPROVAL_ROLE ( '' ) ;
#44 = ADVANCED_BREP_SHAPE_REPRESENTATION ( 'Web Model 68157_21017', ( #65, #121 ), #98 ) ;
#45 = PRODUCT_DEFINITION_FORMATION_WITH_SPECIFIED_SOURCE ( 'ANY', '', #41, .NOT_KNOWN. ) ;
#46 = PLANE ( 'NONE',  #110 ) ;
#47 = CARTESIAN_POINT ( 'NONE',  ( 0.000000000000000000, 0.000000000000000000, 0.5000000000000000000 ) ) ;
#48 = LOCAL_TIME ( 15, 23, 43.00000000000000000, #163 ) ;
#49 = DIRECTION ( 'NONE',  ( -1.000000000000000000, 0.000000000000000000, 0.000000000000000000 ) ) ;
#50 = CC_DESIGN_PERSON_AND_ORGANIZATION_ASSIGNMENT ( #158, #108, ( #41 ) ) ;
#51 = CARTESIAN_POINT ( 'NONE',  ( 0.000000000000000000, 0.000000000000000000, 0.000000000000000000 ) ) ;
#52 = CIRCLE ( 'NONE', #104, 6.349999999999999645 ) ;
#53 = AXIS2_PLACEMENT_3D ( 'NONE', #171, #131, #119 ) ;
#54 = PERSON_AND_ORGANIZATION_ROLE ( 'design_supplier' ) ;
#55 = SHAPE_DEFINITION_REPRESENTATION ( #99, #44 ) ;
#56 = COORDINATED_UNIVERSAL_TIME_OFFSET ( 5, 0, .BEHIND. ) ;
#57 = APPROVAL ( #145, 'UNSPECIFIED' ) ;
#58 = PERSON_AND_ORGANIZATION_ROLE ( 'classification_officer' ) ;
#59 = PERSON_AND_ORGANIZATION_ROLE ( 'creator' ) ;
#60 = EDGE_LOOP ( 'NONE', ( #64, #89 ) ) ;
#61 = LOCAL_TIME ( 15, 23, 43.00000000000000000, #165 ) ;
#62 = DIRECTION ( 'NONE',  ( 0.000000000000000000, 0.000000000000000000, 1.000000000000000000 ) ) ;
#63 = ORIENTED_EDGE ( 'NONE', *, *, #118, .T. ) ;
#64 = ORIENTED_EDGE ( 'NONE', *, *, #164, .F. ) ;
#65 = MANIFOLD_SOLID_BREP ( 'Boss-Extrude1', #85 ) ;
#66 = CIRCLE ( 'NONE', #156, 6.349999999999999645 ) ;
#67 =( NAMED_UNIT ( * ) SI_UNIT ( $, .STERADIAN. ) SOLID_ANGLE_UNIT ( ) );
#68 = ORGANIZATION ( 'UNSPECIFIED', 'UNSPECIFIED', '' ) ;
#69 = DIRECTION ( 'NONE',  ( 1.000000000000000000, 0.000000000000000000, 0.000000000000000000 ) ) ;
#70 = CARTESIAN_POINT ( 'NONE',  ( 6.349999999999999645, 7.776507174585692163E-16, 0.000000000000000000 ) ) ;
#71 = CARTESIAN_POINT ( 'NONE',  ( 0.000000000000000000, 0.000000000000000000, 0.5000000000000000000 ) ) ;
#72 = APPROVAL_PERSON_ORGANIZATION ( #87, #173, #148 ) ;
#73 = PERSON_AND_ORGANIZATION ( #170, #68 ) ;
#74 = APPLICATION_CONTEXT ( 'configuration controlled 3d designs of mechanical parts and assemblies' ) ;
#75 = FACE_OUTER_BOUND ( 'NONE', #80, .T. ) ;
#76 = EDGE_CURVE ( 'NONE', #175, #157, #34, .T. ) ;
#77 = ORIENTED_EDGE ( 'NONE', *, *, #76, .F. ) ;
#78 = CC_DESIGN_APPROVAL ( #57, ( #150 ) ) ;
#79 = CC_DESIGN_APPROVAL ( #128, ( #27 ) ) ;
#80 = EDGE_LOOP ( 'NONE', ( #15, #63 ) ) ;
#81 = DIRECTION ( 'NONE',  ( -0.000000000000000000, -0.000000000000000000, -1.000000000000000000 ) ) ;
#82 = LOCAL_TIME ( 15, 23, 43.00000000000000000, #135 ) ;
#83 = CARTESIAN_POINT ( 'NONE',  ( 0.000000000000000000, 0.000000000000000000, 0.5000000000000000000 ) ) ;
#84 = DIRECTION ( 'NONE',  ( 0.000000000000000000, 0.000000000000000000, 1.000000000000000000 ) ) ;
#85 = CLOSED_SHELL ( 'NONE', ( #36, #17, #8, #124 ) ) ;
#86 = APPROVAL_STATUS ( 'not_yet_approved' ) ;
#87 = PERSON_AND_ORGANIZATION ( #170, #68 ) ;
#88 = CALENDAR_DATE ( 2022, 15, 3 ) ;
#89 = ORIENTED_EDGE ( 'NONE', *, *, #42, .F. ) ;
#90 = LOCAL_TIME ( 15, 23, 43.00000000000000000, #111 ) ;
#91 = CARTESIAN_POINT ( 'NONE',  ( -6.349999999999999645, 0.000000000000000000, 0.000000000000000000 ) ) ;
#92 = MECHANICAL_CONTEXT ( 'NONE', #14, 'mechanical' ) ;
#93 = CARTESIAN_POINT ( 'NONE',  ( 0.000000000000000000, 0.000000000000000000, 0.000000000000000000 ) ) ;
#94 = DIRECTION ( 'NONE',  ( -0.000000000000000000, -0.000000000000000000, -1.000000000000000000 ) ) ;
#95 = DIRECTION ( 'NONE',  ( 0.000000000000000000, 0.000000000000000000, 1.000000000000000000 ) ) ;
#96 = APPROVAL_STATUS ( 'not_yet_approved' ) ;
#97 = CALENDAR_DATE ( 2022, 15, 3 ) ;
#98 =( GEOMETRIC_REPRESENTATION_CONTEXT ( 3 ) GLOBAL_UNCERTAINTY_ASSIGNED_CONTEXT ( ( #154 ) ) GLOBAL_UNIT_ASSIGNED_CONTEXT ( ( #7, #103, #67 ) ) REPRESENTATION_CONTEXT ( 'NONE', 'WORKASPACE' ) );
#99 = PRODUCT_DEFINITION_SHAPE ( 'NONE', 'NONE',  #150 ) ;
#100 = DESIGN_CONTEXT ( 'detailed design', #74, 'design' ) ;
#101 = CIRCLE ( 'NONE', #20, 6.349999999999999645 ) ;
#102 = LINE ( 'NONE', #33, #133 ) ;
#103 =( NAMED_UNIT ( * ) PLANE_ANGLE_UNIT ( ) SI_UNIT ( $, .RADIAN. ) );
#104 = AXIS2_PLACEMENT_3D ( 'NONE', #93, #9, #69 ) ;
#105 = CC_DESIGN_APPROVAL ( #173, ( #45 ) ) ;
#106 = FACE_OUTER_BOUND ( 'NONE', #32, .T. ) ;
#107 = CARTESIAN_POINT ( 'NONE',  ( 0.000000000000000000, 0.000000000000000000, 0.000000000000000000 ) ) ;
#108 = PERSON_AND_ORGANIZATION_ROLE ( 'design_owner' ) ;
#109 = CC_DESIGN_PERSON_AND_ORGANIZATION_ASSIGNMENT ( #73, #125, ( #45 ) ) ;
#110 = AXIS2_PLACEMENT_3D ( 'NONE', #127, #62, #113 ) ;
#111 = COORDINATED_UNIVERSAL_TIME_OFFSET ( 5, 0, .BEHIND. ) ;
#112 = DATE_AND_TIME ( #40, #61 ) ;
#113 = DIRECTION ( 'NONE',  ( 1.000000000000000000, 0.000000000000000000, -0.000000000000000000 ) ) ;
#114 = ORIENTED_EDGE ( 'NONE', *, *, #31, .F. ) ;
#115 = EDGE_LOOP ( 'NONE', ( #77, #153, #1, #116 ) ) ;
#116 = ORIENTED_EDGE ( 'NONE', *, *, #164, .T. ) ;
#117 = CYLINDRICAL_SURFACE ( 'NONE', #139, 6.349999999999999645 ) ;
#118 = EDGE_CURVE ( 'NONE', #175, #168, #101, .T. ) ;
#119 = DIRECTION ( 'NONE',  ( 1.000000000000000000, 0.000000000000000000, -0.000000000000000000 ) ) ;
#120 = EDGE_CURVE ( 'NONE', #168, #175, #66, .T. ) ;
#121 = AXIS2_PLACEMENT_3D ( 'NONE', #107, #159, #21 ) ;
#122 = DATE_AND_TIME ( #97, #82 ) ;
#123 = LOCAL_TIME ( 15, 23, 43.00000000000000000, #56 ) ;
#124 = ADVANCED_FACE ( 'NONE', ( #6 ), #129, .F. ) ;
#125 = PERSON_AND_ORGANIZATION_ROLE ( 'creator' ) ;
#126 = APPROVAL_PERSON_ORGANIZATION ( #134, #128, #43 ) ;
#127 = CARTESIAN_POINT ( 'NONE',  ( 0.000000000000000000, 0.000000000000000000, 0.5000000000000000000 ) ) ;
#128 = APPROVAL ( #86, 'UNSPECIFIED' ) ;
#129 = PLANE ( 'NONE',  #53 ) ;
#130 = DIRECTION ( 'NONE',  ( 1.000000000000000000, 0.000000000000000000, 0.000000000000000000 ) ) ;
#131 = DIRECTION ( 'NONE',  ( 0.000000000000000000, 0.000000000000000000, 1.000000000000000000 ) ) ;
#132 = CALENDAR_DATE ( 2022, 15, 3 ) ;
#133 = VECTOR ( 'NONE', #37, 1000.000000000000000 ) ;
#134 = PERSON_AND_ORGANIZATION ( #170, #68 ) ;
#135 = COORDINATED_UNIVERSAL_TIME_OFFSET ( 5, 0, .BEHIND. ) ;
#136 = CALENDAR_DATE ( 2022, 15, 3 ) ;
#137 = DATE_AND_TIME ( #132, #123 ) ;
#138 = ORIENTED_EDGE ( 'NONE', *, *, #42, .T. ) ;
#139 = AXIS2_PLACEMENT_3D ( 'NONE', #83, #81, #160 ) ;
#140 = VERTEX_POINT ( 'NONE', #91 ) ;
#141 = ORIENTED_EDGE ( 'NONE', *, *, #76, .T. ) ;
#142 = CC_DESIGN_PERSON_AND_ORGANIZATION_ASSIGNMENT ( #152, #54, ( #45 ) ) ;
#143 = ORIENTED_EDGE ( 'NONE', *, *, #118, .F. ) ;
#144 = CARTESIAN_POINT ( 'NONE',  ( 6.349999999999999645, 7.776507174585692163E-16, 0.5000000000000000000 ) ) ;
#145 = APPROVAL_STATUS ( 'not_yet_approved' ) ;
#146 = CARTESIAN_POINT ( 'NONE',  ( -6.349999999999999645, 0.000000000000000000, 0.5000000000000000000 ) ) ;
#147 = CARTESIAN_POINT ( 'NONE',  ( 0.000000000000000000, 0.000000000000000000, 0.5000000000000000000 ) ) ;
#148 = APPROVAL_ROLE ( '' ) ;
#149 = DATE_TIME_ROLE ( 'creation_date' ) ;
#150 = PRODUCT_DEFINITION ( 'UNKNOWN', '', #45, #100 ) ;
#151 = AXIS2_PLACEMENT_3D ( 'NONE', #51, #84, #4 ) ;
#152 = PERSON_AND_ORGANIZATION ( #170, #68 ) ;
#153 = ORIENTED_EDGE ( 'NONE', *, *, #120, .F. ) ;
#154 = UNCERTAINTY_MEASURE_WITH_UNIT (LENGTH_MEASURE( 1.000000000000000082E-05 ), #7, 'distance_accuracy_value', 'NONE');
#155 = AXIS2_PLACEMENT_3D ( 'NONE', #47, #169, #49 ) ;
#156 = AXIS2_PLACEMENT_3D ( 'NONE', #147, #23, #130 ) ;
#157 = VERTEX_POINT ( 'NONE', #70 ) ;
#158 = PERSON_AND_ORGANIZATION ( #170, #68 ) ;
#159 = DIRECTION ( 'NONE',  ( 0.000000000000000000, 0.000000000000000000, 1.000000000000000000 ) ) ;
#160 = DIRECTION ( 'NONE',  ( -1.000000000000000000, 0.000000000000000000, 0.000000000000000000 ) ) ;
#161 = CC_DESIGN_DATE_AND_TIME_ASSIGNMENT ( #26, #28, ( #27 ) ) ;
#162 = DATE_AND_TIME ( #136, #48 ) ;
#163 = COORDINATED_UNIVERSAL_TIME_OFFSET ( 5, 0, .BEHIND. ) ;
#164 = EDGE_CURVE ( 'NONE', #140, #157, #2, .T. ) ;
#165 = COORDINATED_UNIVERSAL_TIME_OFFSET ( 5, 0, .BEHIND. ) ;
#166 = FACE_OUTER_BOUND ( 'NONE', #115, .T. ) ;
#167 = CC_DESIGN_DATE_AND_TIME_ASSIGNMENT ( #137, #149, ( #150 ) ) ;
#168 = VERTEX_POINT ( 'NONE', #146 ) ;
#169 = DIRECTION ( 'NONE',  ( -0.000000000000000000, -0.000000000000000000, -1.000000000000000000 ) ) ;
#170 = PERSON ( 'UNSPECIFIED', 'UNSPECIFIED', 'UNSPECIFIED', ('UNSPECIFIED'), ('UNSPECIFIED'), ('UNSPECIFIED') ) ;
#171 = CARTESIAN_POINT ( 'NONE',  ( 0.000000000000000000, 0.000000000000000000, 0.000000000000000000 ) ) ;
#172 = DIRECTION ( 'NONE',  ( 1.000000000000000000, 0.000000000000000000, 0.000000000000000000 ) ) ;
#173 = APPROVAL ( #96, 'UNSPECIFIED' ) ;
#174 = PERSON_AND_ORGANIZATION ( #170, #68 ) ;
#175 = VERTEX_POINT ( 'NONE', #144 ) ;
ENDSEC;
END-ISO-10303-21;
