ISO-10303-21;
HEADER;
FILE_DESCRIPTION (( 'STEP AP203' ),
    '1' );
FILE_NAME ('Web Model 11909_11909.step',
    '2019-04-22T14:59:25',
    ( '' ),
    ( '' ),
    'SwSTEP 2.0',
    'SolidWorks 2018',
    '' );
FILE_SCHEMA (( 'CONFIG_CONTROL_DESIGN' ));
ENDSEC;

DATA;
#1 = AXIS2_PLACEMENT_3D ( 'NONE', #29, #44, #143 ) ;
#2 = CIRCLE ( 'NONE', #31, 25.00000000000000000 ) ;
#3 = APPROVAL_PERSON_ORGANIZATION ( #45, #112, #27 ) ;
#4 = SECURITY_CLASSIFICATION ( '', '', #166 ) ;
#5 = DIRECTION ( 'NONE',  ( 1.000000000000000000, 0.0000000000000000000, 0.0000000000000000000 ) ) ;
#6 = APPROVAL_PERSON_ORGANIZATION ( #163, #117, #97 ) ;
#7 = PERSON_AND_ORGANIZATION ( #161, #135 ) ;
#8 = CARTESIAN_POINT ( 'NONE',  ( -25.00000000000000000, 3.061616997868383043E-15, 0.0000000000000000000 ) ) ;
#9 = APPROVAL_STATUS ( 'not_yet_approved' ) ;
#10 = APPROVAL_DATE_TIME ( #67, #124 ) ;
#11 = FACE_OUTER_BOUND ( 'NONE', #55, .T. ) ;
#12 = DIRECTION ( 'NONE',  ( 1.000000000000000000, 0.0000000000000000000, 0.0000000000000000000 ) ) ;
#13 = ORIENTED_EDGE ( 'NONE', *, *, #165, .F. ) ;
#14 = PERSON_AND_ORGANIZATION_ROLE ( 'classification_officer' ) ;
#15 = EDGE_CURVE ( 'NONE', #172, #24, #2, .T. ) ;
#16 = LOCAL_TIME ( 10, 59, 25.00000000000000000, #86 ) ;
#17 = CC_DESIGN_PERSON_AND_ORGANIZATION_ASSIGNMENT ( #76, #14, ( #4 ) ) ;
#18 = CYLINDRICAL_SURFACE ( 'NONE', #1, 25.00000000000000000 ) ;
#19 = CARTESIAN_POINT ( 'NONE',  ( 0.0000000000000000000, 0.0000000000000000000, -5.000000000000000000 ) ) ;
#20 = DIRECTION ( 'NONE',  ( 0.0000000000000000000, 0.0000000000000000000, 1.000000000000000000 ) ) ;
#21 = DATE_AND_TIME ( #107, #16 ) ;
#22 = CARTESIAN_POINT ( 'NONE',  ( 0.0000000000000000000, 0.0000000000000000000, -5.000000000000000000 ) ) ;
#23 = CALENDAR_DATE ( 2019, 22, 4 ) ;
#24 = VERTEX_POINT ( 'NONE', #122 ) ;
#25 = APPROVAL_STATUS ( 'not_yet_approved' ) ;
#26 = DATE_TIME_ROLE ( 'classification_date' ) ;
#27 = APPROVAL_ROLE ( '' ) ;
#28 = SHAPE_DEFINITION_REPRESENTATION ( #89, #38 ) ;
#29 = CARTESIAN_POINT ( 'NONE',  ( 0.0000000000000000000, 0.0000000000000000000, -5.000000000000000000 ) ) ;
#30 = ORIENTED_EDGE ( 'NONE', *, *, #72, .T. ) ;
#31 = AXIS2_PLACEMENT_3D ( 'NONE', #42, #126, #125 ) ;
#32 = CALENDAR_DATE ( 2019, 22, 4 ) ;
#33 = CYLINDRICAL_SURFACE ( 'NONE', #56, 25.00000000000000000 ) ;
#34 = PERSON_AND_ORGANIZATION ( #161, #135 ) ;
#35 = CARTESIAN_POINT ( 'NONE',  ( -25.00000000000000000, 3.061616997868383043E-15, -5.000000000000000000 ) ) ;
#36 = PERSON_AND_ORGANIZATION ( #161, #135 ) ;
#37 = ORIENTED_EDGE ( 'NONE', *, *, #127, .T. ) ;
#38 = ADVANCED_BREP_SHAPE_REPRESENTATION ( 'Web Model 11909_11909', ( #65, #171 ), #63 ) ;
#39 = DATE_AND_TIME ( #68, #149 ) ;
#40 = FACE_OUTER_BOUND ( 'NONE', #168, .T. ) ;
#41 = COORDINATED_UNIVERSAL_TIME_OFFSET ( 5, 0, .BEHIND. ) ;
#42 = CARTESIAN_POINT ( 'NONE',  ( 0.0000000000000000000, 0.0000000000000000000, 0.0000000000000000000 ) ) ;
#43 = VECTOR ( 'NONE', #110, 1000.000000000000000 ) ;
#44 = DIRECTION ( 'NONE',  ( 0.0000000000000000000, 0.0000000000000000000, 1.000000000000000000 ) ) ;
#45 = PERSON_AND_ORGANIZATION ( #161, #135 ) ;
#46 = CARTESIAN_POINT ( 'NONE',  ( 25.00000000000000000, 0.0000000000000000000, -5.000000000000000000 ) ) ;
#47 = VERTEX_POINT ( 'NONE', #46 ) ;
#48 = COORDINATED_UNIVERSAL_TIME_OFFSET ( 5, 0, .BEHIND. ) ;
#49 = COORDINATED_UNIVERSAL_TIME_OFFSET ( 5, 0, .BEHIND. ) ;
#50 = ORIENTED_EDGE ( 'NONE', *, *, #79, .T. ) ;
#51 = DATE_TIME_ROLE ( 'creation_date' ) ;
#52 = DIRECTION ( 'NONE',  ( 0.0000000000000000000, 0.0000000000000000000, 1.000000000000000000 ) ) ;
#53 = LINE ( 'NONE', #113, #120 ) ;
#54 = AXIS2_PLACEMENT_3D ( 'NONE', #154, #95, #5 ) ;
#55 = EDGE_LOOP ( 'NONE', ( #30, #105, #119, #141 ) ) ;
#56 = AXIS2_PLACEMENT_3D ( 'NONE', #22, #158, #81 ) ;
#57 = ORIENTED_EDGE ( 'NONE', *, *, #127, .F. ) ;
#58 = EDGE_LOOP ( 'NONE', ( #132, #73 ) ) ;
#59 = CC_DESIGN_DATE_AND_TIME_ASSIGNMENT ( #39, #26, ( #4 ) ) ;
#60 = DIRECTION ( 'NONE',  ( 1.000000000000000000, 0.0000000000000000000, -0.0000000000000000000 ) ) ;
#61 = CIRCLE ( 'NONE', #74, 25.00000000000000000 ) ;
#62 = APPLICATION_CONTEXT ( 'configuration controlled 3d designs of mechanical parts and assemblies' ) ;
#63 =( GEOMETRIC_REPRESENTATION_CONTEXT ( 3 ) GLOBAL_UNCERTAINTY_ASSIGNED_CONTEXT ( ( #93 ) ) GLOBAL_UNIT_ASSIGNED_CONTEXT ( ( #134, #116, #133 ) ) REPRESENTATION_CONTEXT ( 'NONE', 'WORKASPACE' ) );
#64 = APPROVAL_DATE_TIME ( #85, #117 ) ;
#65 = MANIFOLD_SOLID_BREP ( '47836-1-solid1', #108 ) ;
#66 = ADVANCED_FACE ( 'NONE', ( #40 ), #92, .F. ) ;
#67 = DATE_AND_TIME ( #32, #148 ) ;
#68 = CALENDAR_DATE ( 2019, 22, 4 ) ;
#69 = CARTESIAN_POINT ( 'NONE',  ( 0.0000000000000000000, 0.0000000000000000000, -5.000000000000000000 ) ) ;
#70 = PERSON_AND_ORGANIZATION_ROLE ( 'creator' ) ;
#71 = CC_DESIGN_PERSON_AND_ORGANIZATION_ASSIGNMENT ( #34, #164, ( #109 ) ) ;
#72 = EDGE_CURVE ( 'NONE', #47, #84, #100, .T. ) ;
#73 = ORIENTED_EDGE ( 'NONE', *, *, #15, .T. ) ;
#74 = AXIS2_PLACEMENT_3D ( 'NONE', #146, #80, #82 ) ;
#75 = CC_DESIGN_APPROVAL ( #124, ( #136 ) ) ;
#76 = PERSON_AND_ORGANIZATION ( #161, #135 ) ;
#77 = ADVANCED_FACE ( 'NONE', ( #128 ), #18, .T. ) ;
#78 = DIRECTION ( 'NONE',  ( 0.0000000000000000000, 0.0000000000000000000, 1.000000000000000000 ) ) ;
#79 = EDGE_CURVE ( 'NONE', #47, #24, #53, .T. ) ;
#80 = DIRECTION ( 'NONE',  ( 0.0000000000000000000, 0.0000000000000000000, 1.000000000000000000 ) ) ;
#81 = DIRECTION ( 'NONE',  ( 1.000000000000000000, 0.0000000000000000000, 0.0000000000000000000 ) ) ;
#82 = DIRECTION ( 'NONE',  ( 1.000000000000000000, 0.0000000000000000000, 0.0000000000000000000 ) ) ;
#83 = APPROVAL_PERSON_ORGANIZATION ( #140, #124, #173 ) ;
#84 = VERTEX_POINT ( 'NONE', #35 ) ;
#85 = DATE_AND_TIME ( #104, #137 ) ;
#86 = COORDINATED_UNIVERSAL_TIME_OFFSET ( 5, 0, .BEHIND. ) ;
#87 = ORIENTED_EDGE ( 'NONE', *, *, #72, .F. ) ;
#88 = CC_DESIGN_PERSON_AND_ORGANIZATION_ASSIGNMENT ( #36, #70, ( #136 ) ) ;
#89 = PRODUCT_DEFINITION_SHAPE ( 'NONE', 'NONE',  #136 ) ;
#90 = DIRECTION ( 'NONE',  ( 1.000000000000000000, 0.0000000000000000000, -0.0000000000000000000 ) ) ;
#91 = CC_DESIGN_PERSON_AND_ORGANIZATION_ASSIGNMENT ( #160, #147, ( #109 ) ) ;
#92 = PLANE ( 'NONE',  #106 ) ;
#93 = UNCERTAINTY_MEASURE_WITH_UNIT (LENGTH_MEASURE( 1.000000000000000082E-05 ), #134, 'distance_accuracy_value', 'NONE');
#94 = FACE_OUTER_BOUND ( 'NONE', #58, .T. ) ;
#95 = DIRECTION ( 'NONE',  ( 0.0000000000000000000, 0.0000000000000000000, 1.000000000000000000 ) ) ;
#96 = CARTESIAN_POINT ( 'NONE',  ( 0.0000000000000000000, 0.0000000000000000000, 0.0000000000000000000 ) ) ;
#97 = APPROVAL_ROLE ( '' ) ;
#98 = MECHANICAL_CONTEXT ( 'NONE', #62, 'mechanical' ) ;
#99 = CC_DESIGN_DATE_AND_TIME_ASSIGNMENT ( #111, #51, ( #136 ) ) ;
#100 = CIRCLE ( 'NONE', #54, 25.00000000000000000 ) ;
#101 = APPLICATION_CONTEXT ( 'configuration controlled 3d designs of mechanical parts and assemblies' ) ;
#102 = CC_DESIGN_APPROVAL ( #112, ( #4 ) ) ;
#103 = EDGE_CURVE ( 'NONE', #24, #172, #61, .T. ) ;
#104 = CALENDAR_DATE ( 2019, 22, 4 ) ;
#105 = ORIENTED_EDGE ( 'NONE', *, *, #165, .T. ) ;
#106 = AXIS2_PLACEMENT_3D ( 'NONE', #19, #20, #90 ) ;
#107 = CALENDAR_DATE ( 2019, 22, 4 ) ;
#108 = CLOSED_SHELL ( 'NONE', ( #157, #77, #66, #170 ) ) ;
#109 = PRODUCT_DEFINITION_FORMATION_WITH_SPECIFIED_SOURCE ( 'ANY', '', #167, .NOT_KNOWN. ) ;
#110 = DIRECTION ( 'NONE',  ( 0.0000000000000000000, 0.0000000000000000000, 1.000000000000000000 ) ) ;
#111 = DATE_AND_TIME ( #23, #156 ) ;
#112 = APPROVAL ( #121, 'UNSPECIFIED' ) ;
#113 = CARTESIAN_POINT ( 'NONE',  ( 25.00000000000000000, 0.0000000000000000000, -5.000000000000000000 ) ) ;
#114 = DIRECTION ( 'NONE',  ( 1.000000000000000000, 0.0000000000000000000, 0.0000000000000000000 ) ) ;
#115 = CARTESIAN_POINT ( 'NONE',  ( -25.00000000000000000, 3.061616997868383043E-15, -5.000000000000000000 ) ) ;
#116 =( NAMED_UNIT ( * ) PLANE_ANGLE_UNIT ( ) SI_UNIT ( $, .RADIAN. ) );
#117 = APPROVAL ( #9, 'UNSPECIFIED' ) ;
#118 = COORDINATED_UNIVERSAL_TIME_OFFSET ( 5, 0, .BEHIND. ) ;
#119 = ORIENTED_EDGE ( 'NONE', *, *, #103, .F. ) ;
#120 = VECTOR ( 'NONE', #130, 1000.000000000000000 ) ;
#121 = APPROVAL_STATUS ( 'not_yet_approved' ) ;
#122 = CARTESIAN_POINT ( 'NONE',  ( 25.00000000000000000, 0.0000000000000000000, 0.0000000000000000000 ) ) ;
#123 = CIRCLE ( 'NONE', #155, 25.00000000000000000 ) ;
#124 = APPROVAL ( #25, 'UNSPECIFIED' ) ;
#125 = DIRECTION ( 'NONE',  ( 1.000000000000000000, 0.0000000000000000000, 0.0000000000000000000 ) ) ;
#126 = DIRECTION ( 'NONE',  ( 0.0000000000000000000, 0.0000000000000000000, 1.000000000000000000 ) ) ;
#127 = EDGE_CURVE ( 'NONE', #84, #47, #123, .T. ) ;
#128 = FACE_OUTER_BOUND ( 'NONE', #138, .T. ) ;
#129 = PLANE ( 'NONE',  #174 ) ;
#130 = DIRECTION ( 'NONE',  ( 0.0000000000000000000, 0.0000000000000000000, 1.000000000000000000 ) ) ;
#131 = CARTESIAN_POINT ( 'NONE',  ( 0.0000000000000000000, 0.0000000000000000000, 0.0000000000000000000 ) ) ;
#132 = ORIENTED_EDGE ( 'NONE', *, *, #103, .T. ) ;
#133 =( NAMED_UNIT ( * ) SI_UNIT ( $, .STERADIAN. ) SOLID_ANGLE_UNIT ( ) );
#134 =( LENGTH_UNIT ( ) NAMED_UNIT ( * ) SI_UNIT ( .MILLI., .METRE. ) );
#135 = ORGANIZATION ( 'UNSPECIFIED', 'UNSPECIFIED', '' ) ;
#136 = PRODUCT_DEFINITION ( 'UNKNOWN', '', #109, #151 ) ;
#137 = LOCAL_TIME ( 10, 59, 25.00000000000000000, #41 ) ;
#138 = EDGE_LOOP ( 'NONE', ( #13, #37, #50, #169 ) ) ;
#139 = CC_DESIGN_APPROVAL ( #117, ( #109 ) ) ;
#140 = PERSON_AND_ORGANIZATION ( #161, #135 ) ;
#141 = ORIENTED_EDGE ( 'NONE', *, *, #79, .F. ) ;
#142 = LINE ( 'NONE', #115, #43 ) ;
#143 = DIRECTION ( 'NONE',  ( 1.000000000000000000, 0.0000000000000000000, 0.0000000000000000000 ) ) ;
#144 = DIRECTION ( 'NONE',  ( 0.0000000000000000000, 0.0000000000000000000, 1.000000000000000000 ) ) ;
#145 = PRODUCT_RELATED_PRODUCT_CATEGORY ( 'detail', '', ( #167 ) ) ;
#146 = CARTESIAN_POINT ( 'NONE',  ( 0.0000000000000000000, 0.0000000000000000000, 0.0000000000000000000 ) ) ;
#147 = PERSON_AND_ORGANIZATION_ROLE ( 'creator' ) ;
#148 = LOCAL_TIME ( 10, 59, 25.00000000000000000, #118 ) ;
#149 = LOCAL_TIME ( 10, 59, 25.00000000000000000, #48 ) ;
#150 = CC_DESIGN_SECURITY_CLASSIFICATION ( #4, ( #109 ) ) ;
#151 = DESIGN_CONTEXT ( 'detailed design', #101, 'design' ) ;
#152 = APPROVAL_DATE_TIME ( #21, #112 ) ;
#153 = CC_DESIGN_PERSON_AND_ORGANIZATION_ASSIGNMENT ( #7, #162, ( #167 ) ) ;
#154 = CARTESIAN_POINT ( 'NONE',  ( 0.0000000000000000000, 0.0000000000000000000, -5.000000000000000000 ) ) ;
#155 = AXIS2_PLACEMENT_3D ( 'NONE', #69, #78, #114 ) ;
#156 = LOCAL_TIME ( 10, 59, 25.00000000000000000, #49 ) ;
#157 = ADVANCED_FACE ( 'NONE', ( #11 ), #33, .T. ) ;
#158 = DIRECTION ( 'NONE',  ( 0.0000000000000000000, 0.0000000000000000000, 1.000000000000000000 ) ) ;
#159 = APPLICATION_PROTOCOL_DEFINITION ( 'international standard', 'config_control_design', 1994, #101 ) ;
#160 = PERSON_AND_ORGANIZATION ( #161, #135 ) ;
#161 = PERSON ( 'UNSPECIFIED', 'UNSPECIFIED', 'UNSPECIFIED', ('UNSPECIFIED'), ('UNSPECIFIED'), ('UNSPECIFIED') ) ;
#162 = PERSON_AND_ORGANIZATION_ROLE ( 'design_owner' ) ;
#163 = PERSON_AND_ORGANIZATION ( #161, #135 ) ;
#164 = PERSON_AND_ORGANIZATION_ROLE ( 'design_supplier' ) ;
#165 = EDGE_CURVE ( 'NONE', #84, #172, #142, .T. ) ;
#166 = SECURITY_CLASSIFICATION_LEVEL ( 'unclassified' ) ;
#167 = PRODUCT ( 'Web Model 11909_11909', 'Web Model 11909_11909', '', ( #98 ) ) ;
#168 = EDGE_LOOP ( 'NONE', ( #87, #57 ) ) ;
#169 = ORIENTED_EDGE ( 'NONE', *, *, #15, .F. ) ;
#170 = ADVANCED_FACE ( 'NONE', ( #94 ), #129, .T. ) ;
#171 = AXIS2_PLACEMENT_3D ( 'NONE', #96, #52, #12 ) ;
#172 = VERTEX_POINT ( 'NONE', #8 ) ;
#173 = APPROVAL_ROLE ( '' ) ;
#174 = AXIS2_PLACEMENT_3D ( 'NONE', #131, #144, #60 ) ;
#175 = APPLICATION_PROTOCOL_DEFINITION ( 'international standard', 'config_control_design', 1994, #62 ) ;
ENDSEC;
END-ISO-10303-21;
