ISO-10303-21;
HEADER;
FILE_DESCRIPTION (( 'STEP AP203' ),
    '1' );
FILE_NAME ('Web Model 43772_43776.step',
    '2018-03-12T19:20:26',
    ( '' ),
    ( '' ),
    'SwSTEP 2.0',
    'SolidWorks 2016',
    '' );
FILE_SCHEMA (( 'CONFIG_CONTROL_DESIGN' ));
ENDSEC;

DATA;
#1 = CC_DESIGN_PERSON_AND_ORGANIZATION_ASSIGNMENT ( #130, #196, ( #187 ) ) ;
#2 = FACE_OUTER_BOUND ( 'NONE', #120, .T. ) ;
#3 = DIRECTION ( 'NONE',  ( 0.0000000000000000000, 0.0000000000000000000, -1.000000000000000000 ) ) ;
#4 = CARTESIAN_POINT ( 'NONE',  ( -3.000000000000000000, -6.349999999999997900, 6.350000000000000500 ) ) ;
#5 = ORIENTED_EDGE ( 'NONE', *, *, #227, .F. ) ;
#6 = DIRECTION ( 'NONE',  ( -0.0000000000000000000, 1.000000000000000000, 2.048885995248197400E-016 ) ) ;
#7 = PERSON_AND_ORGANIZATION ( #16, #49 ) ;
#8 =( NAMED_UNIT ( * ) SI_UNIT ( $, .STERADIAN. ) SOLID_ANGLE_UNIT ( ) );
#9 = MANIFOLD_SOLID_BREP ( 'Boss-Extrude1', #163 ) ;
#10 = VERTEX_POINT ( 'NONE', #224 ) ;
#11 = APPROVAL_ROLE ( '' ) ;
#12 = LOCAL_TIME ( 15, 20, 26.00000000000000000, #162 ) ;
#13 = VERTEX_POINT ( 'NONE', #185 ) ;
#14 = CC_DESIGN_APPROVAL ( #216, ( #187 ) ) ;
#15 = ORIENTED_EDGE ( 'NONE', *, *, #36, .F. ) ;
#16 = PERSON ( 'UNSPECIFIED', 'UNSPECIFIED', 'UNSPECIFIED', ('UNSPECIFIED'), ('UNSPECIFIED'), ('UNSPECIFIED') ) ;
#17 = APPROVAL_PERSON_ORGANIZATION ( #124, #147, #175 ) ;
#18 = LINE ( 'NONE', #209, #213 ) ;
#19 = DIRECTION ( 'NONE',  ( 0.0000000000000000000, 0.0000000000000000000, -1.000000000000000000 ) ) ;
#20 = DIRECTION ( 'NONE',  ( 0.0000000000000000000, 1.000000000000000000, -2.048885995248197400E-016 ) ) ;
#21 = CC_DESIGN_PERSON_AND_ORGANIZATION_ASSIGNMENT ( #168, #125, ( #218 ) ) ;
#22 = ADVANCED_FACE ( 'NONE', ( #99 ), #67, .F. ) ;
#23 = DIRECTION ( 'NONE',  ( -0.0000000000000000000, -0.0000000000000000000, 1.000000000000000000 ) ) ;
#24 = LINE ( 'NONE', #156, #146 ) ;
#25 = CARTESIAN_POINT ( 'NONE',  ( -3.000000000000000000, 6.350000000000000500, 6.349999999999997900 ) ) ;
#26 = DIRECTION ( 'NONE',  ( 0.0000000000000000000, -1.000000000000000000, 0.0000000000000000000 ) ) ;
#27 = DIRECTION ( 'NONE',  ( -0.0000000000000000000, -0.0000000000000000000, 1.000000000000000000 ) ) ;
#28 = CALENDAR_DATE ( 2018, 12, 3 ) ;
#29 = VECTOR ( 'NONE', #6, 1000.000000000000000 ) ;
#30 = DIRECTION ( 'NONE',  ( 1.000000000000000000, 0.0000000000000000000, 0.0000000000000000000 ) ) ;
#31 = CC_DESIGN_SECURITY_CLASSIFICATION ( #187, ( #114 ) ) ;
#32 = DIRECTION ( 'NONE',  ( 0.0000000000000000000, 0.0000000000000000000, -1.000000000000000000 ) ) ;
#33 = ORIENTED_EDGE ( 'NONE', *, *, #129, .T. ) ;
#34 = AXIS2_PLACEMENT_3D ( 'NONE', #166, #119, #137 ) ;
#35 = LOCAL_TIME ( 15, 20, 26.00000000000000000, #232 ) ;
#36 = EDGE_CURVE ( 'NONE', #116, #142, #149, .T. ) ;
#37 = ORIENTED_EDGE ( 'NONE', *, *, #103, .F. ) ;
#38 = CC_DESIGN_PERSON_AND_ORGANIZATION_ASSIGNMENT ( #7, #72, ( #211 ) ) ;
#39 = VERTEX_POINT ( 'NONE', #134 ) ;
#40 = DATE_AND_TIME ( #88, #184 ) ;
#41 = VERTEX_POINT ( 'NONE', #169 ) ;
#42 = CC_DESIGN_APPROVAL ( #221, ( #211 ) ) ;
#43 = CALENDAR_DATE ( 2018, 12, 3 ) ;
#44 = PRODUCT_RELATED_PRODUCT_CATEGORY ( 'detail', '', ( #218 ) ) ;
#45 = PLANE ( 'NONE',  #176 ) ;
#46 = ADVANCED_FACE ( 'NONE', ( #65 ), #45, .F. ) ;
#47 = CARTESIAN_POINT ( 'NONE',  ( -3.000000000000000000, -6.349999999999997900, 6.350000000000000500 ) ) ;
#48 = ORIENTED_EDGE ( 'NONE', *, *, #129, .F. ) ;
#49 = ORGANIZATION ( 'UNSPECIFIED', 'UNSPECIFIED', '' ) ;
#50 = VECTOR ( 'NONE', #19, 1000.000000000000000 ) ;
#51 = CARTESIAN_POINT ( 'NONE',  ( 3.000000000000000000, 6.350000000000000500, 6.349999999999997900 ) ) ;
#52 = AXIS2_PLACEMENT_3D ( 'NONE', #133, #180, #101 ) ;
#53 = COORDINATED_UNIVERSAL_TIME_OFFSET ( 5, 0, .BEHIND. ) ;
#54 = ORIENTED_EDGE ( 'NONE', *, *, #75, .T. ) ;
#55 = ORIENTED_EDGE ( 'NONE', *, *, #152, .T. ) ;
#56 = DATE_AND_TIME ( #78, #94 ) ;
#57 = PERSON_AND_ORGANIZATION ( #16, #49 ) ;
#58 = ORIENTED_EDGE ( 'NONE', *, *, #152, .F. ) ;
#59 = VECTOR ( 'NONE', #23, 1000.000000000000000 ) ;
#60 = CARTESIAN_POINT ( 'NONE',  ( 3.000000000000000000, 6.350000000000000500, 6.349999999999997900 ) ) ;
#61 = ADVANCED_FACE ( 'NONE', ( #127 ), #138, .F. ) ;
#62 = CC_DESIGN_DATE_AND_TIME_ASSIGNMENT ( #92, #73, ( #211 ) ) ;
#63 = CARTESIAN_POINT ( 'NONE',  ( 3.000000000000000000, -6.349999999999997900, 6.350000000000000500 ) ) ;
#64 = DIRECTION ( 'NONE',  ( 0.0000000000000000000, -0.0000000000000000000, 1.000000000000000000 ) ) ;
#65 = FACE_OUTER_BOUND ( 'NONE', #148, .T. ) ;
#66 = EDGE_LOOP ( 'NONE', ( #48, #233, #5, #15 ) ) ;
#67 = PLANE ( 'NONE',  #95 ) ;
#68 =( NAMED_UNIT ( * ) PLANE_ANGLE_UNIT ( ) SI_UNIT ( $, .RADIAN. ) );
#69 = APPLICATION_PROTOCOL_DEFINITION ( 'international standard', 'config_control_design', 1994, #173 ) ;
#70 = PLANE ( 'NONE',  #206 ) ;
#71 = EDGE_CURVE ( 'NONE', #10, #41, #141, .T. ) ;
#72 = PERSON_AND_ORGANIZATION_ROLE ( 'creator' ) ;
#73 = DATE_TIME_ROLE ( 'creation_date' ) ;
#74 = APPROVAL_STATUS ( 'not_yet_approved' ) ;
#75 = EDGE_CURVE ( 'NONE', #111, #41, #193, .T. ) ;
#76 = FACE_OUTER_BOUND ( 'NONE', #177, .T. ) ;
#77 = ORIENTED_EDGE ( 'NONE', *, *, #103, .T. ) ;
#78 = CALENDAR_DATE ( 2018, 12, 3 ) ;
#79 = LINE ( 'NONE', #108, #115 ) ;
#80 = ADVANCED_FACE ( 'NONE', ( #76 ), #104, .F. ) ;
#81 = VECTOR ( 'NONE', #192, 1000.000000000000000 ) ;
#82 = EDGE_CURVE ( 'NONE', #217, #116, #24, .T. ) ;
#83 = ORIENTED_EDGE ( 'NONE', *, *, #195, .T. ) ;
#84 = DIRECTION ( 'NONE',  ( -0.0000000000000000000, 1.000000000000000000, 0.0000000000000000000 ) ) ;
#85 = DIRECTION ( 'NONE',  ( 0.0000000000000000000, -0.0000000000000000000, -1.000000000000000000 ) ) ;
#86 = LOCAL_TIME ( 15, 20, 26.00000000000000000, #53 ) ;
#87 = CARTESIAN_POINT ( 'NONE',  ( -3.000000000000000000, 6.350000000000000500, -6.349999999999999600 ) ) ;
#88 = CALENDAR_DATE ( 2018, 12, 3 ) ;
#89 = EDGE_LOOP ( 'NONE', ( #33, #219, #222, #91 ) ) ;
#90 = PRODUCT_DEFINITION_SHAPE ( 'NONE', 'NONE',  #211 ) ;
#91 = ORIENTED_EDGE ( 'NONE', *, *, #71, .T. ) ;
#92 = DATE_AND_TIME ( #28, #35 ) ;
#93 = VECTOR ( 'NONE', #154, 1000.000000000000000 ) ;
#94 = LOCAL_TIME ( 15, 20, 26.00000000000000000, #97 ) ;
#95 = AXIS2_PLACEMENT_3D ( 'NONE', #220, #105, #20 ) ;
#96 = VECTOR ( 'NONE', #139, 1000.000000000000000 ) ;
#97 = COORDINATED_UNIVERSAL_TIME_OFFSET ( 5, 0, .BEHIND. ) ;
#98 = APPROVAL_PERSON_ORGANIZATION ( #126, #221, #11 ) ;
#99 = FACE_OUTER_BOUND ( 'NONE', #89, .T. ) ;
#100 = ORIENTED_EDGE ( 'NONE', *, *, #153, .T. ) ;
#101 = DIRECTION ( 'NONE',  ( 0.0000000000000000000, 0.0000000000000000000, -1.000000000000000000 ) ) ;
#102 = DIRECTION ( 'NONE',  ( -1.000000000000000000, -0.0000000000000000000, -0.0000000000000000000 ) ) ;
#103 = EDGE_CURVE ( 'NONE', #39, #13, #215, .T. ) ;
#104 = PLANE ( 'NONE',  #225 ) ;
#105 = DIRECTION ( 'NONE',  ( 0.0000000000000000000, -2.048885995248197400E-016, -1.000000000000000000 ) ) ;
#106 = PERSON_AND_ORGANIZATION ( #16, #49 ) ;
#107 = EDGE_LOOP ( 'NONE', ( #136, #226, #37, #83 ) ) ;
#108 = CARTESIAN_POINT ( 'NONE',  ( 3.000000000000000000, 6.350000000000000500, 6.349999999999997900 ) ) ;
#109 = DATE_AND_TIME ( #151, #12 ) ;
#110 = SHAPE_DEFINITION_REPRESENTATION ( #90, #135 ) ;
#111 = VERTEX_POINT ( 'NONE', #207 ) ;
#112 = APPROVAL_STATUS ( 'not_yet_approved' ) ;
#113 = EDGE_CURVE ( 'NONE', #217, #39, #186, .T. ) ;
#114 = PRODUCT_DEFINITION_FORMATION_WITH_SPECIFIED_SOURCE ( 'ANY', '', #218, .NOT_KNOWN. ) ;
#115 = VECTOR ( 'NONE', #27, 1000.000000000000000 ) ;
#116 = VERTEX_POINT ( 'NONE', #4 ) ;
#117 = ORIENTED_EDGE ( 'NONE', *, *, #195, .F. ) ;
#118 = DIRECTION ( 'NONE',  ( -1.000000000000000000, -0.0000000000000000000, -0.0000000000000000000 ) ) ;
#119 = DIRECTION ( 'NONE',  ( 0.0000000000000000000, -2.048885995248197400E-016, 1.000000000000000000 ) ) ;
#120 = EDGE_LOOP ( 'NONE', ( #100, #155, #77, #55 ) ) ;
#121 = CARTESIAN_POINT ( 'NONE',  ( 3.000000000000000000, 6.350000000000000500, -6.349999999999999600 ) ) ;
#122 = CARTESIAN_POINT ( 'NONE',  ( 3.000000000000000000, -6.349999999999997900, 6.350000000000000500 ) ) ;
#123 = CARTESIAN_POINT ( 'NONE',  ( 0.0000000000000000000, 0.0000000000000000000, 0.0000000000000000000 ) ) ;
#124 = PERSON_AND_ORGANIZATION ( #16, #49 ) ;
#125 = PERSON_AND_ORGANIZATION_ROLE ( 'design_owner' ) ;
#126 = PERSON_AND_ORGANIZATION ( #16, #49 ) ;
#127 = FACE_OUTER_BOUND ( 'NONE', #107, .T. ) ;
#128 = VECTOR ( 'NONE', #172, 1000.000000000000000 ) ;
#129 = EDGE_CURVE ( 'NONE', #41, #116, #181, .T. ) ;
#130 = PERSON_AND_ORGANIZATION ( #16, #49 ) ;
#131 = CC_DESIGN_APPROVAL ( #147, ( #114 ) ) ;
#132 = ADVANCED_FACE ( 'NONE', ( #2 ), #203, .T. ) ;
#133 = CARTESIAN_POINT ( 'NONE',  ( 3.000000000000000000, 0.0000000000000000000, 0.0000000000000000000 ) ) ;
#134 = CARTESIAN_POINT ( 'NONE',  ( 3.000000000000000000, -6.349999999999997900, -6.350000000000002300 ) ) ;
#135 = ADVANCED_BREP_SHAPE_REPRESENTATION ( 'Web Model 43772_43776', ( #9, #199 ), #158 ) ;
#136 = ORIENTED_EDGE ( 'NONE', *, *, #227, .T. ) ;
#137 = DIRECTION ( 'NONE',  ( 0.0000000000000000000, -1.000000000000000000, -2.048885995248197400E-016 ) ) ;
#138 = PLANE ( 'NONE',  #34 ) ;
#139 = DIRECTION ( 'NONE',  ( 0.0000000000000000000, -1.000000000000000000, 2.048885995248197400E-016 ) ) ;
#140 =( LENGTH_UNIT ( ) NAMED_UNIT ( * ) SI_UNIT ( .MILLI., .METRE. ) );
#141 = LINE ( 'NONE', #60, #145 ) ;
#142 = VERTEX_POINT ( 'NONE', #183 ) ;
#143 = APPLICATION_CONTEXT ( 'configuration controlled 3d designs of mechanical parts and assemblies' ) ;
#144 = DIRECTION ( 'NONE',  ( 0.0000000000000000000, 0.0000000000000000000, 1.000000000000000000 ) ) ;
#145 = VECTOR ( 'NONE', #118, 1000.000000000000000 ) ;
#146 = VECTOR ( 'NONE', #102, 1000.000000000000000 ) ;
#147 = APPROVAL ( #212, 'UNSPECIFIED' ) ;
#148 = EDGE_LOOP ( 'NONE', ( #54, #236, #58, #157 ) ) ;
#149 = LINE ( 'NONE', #47, #170 ) ;
#150 = APPROVAL_DATE_TIME ( #109, #147 ) ;
#151 = CALENDAR_DATE ( 2018, 12, 3 ) ;
#152 = EDGE_CURVE ( 'NONE', #13, #10, #79, .T. ) ;
#153 = EDGE_CURVE ( 'NONE', #10, #217, #200, .T. ) ;
#154 = DIRECTION ( 'NONE',  ( -0.0000000000000000000, 1.000000000000000000, 2.048885995248197400E-016 ) ) ;
#155 = ORIENTED_EDGE ( 'NONE', *, *, #113, .T. ) ;
#156 = CARTESIAN_POINT ( 'NONE',  ( 3.000000000000000000, -6.349999999999997900, 6.350000000000000500 ) ) ;
#157 = ORIENTED_EDGE ( 'NONE', *, *, #230, .T. ) ;
#158 =( GEOMETRIC_REPRESENTATION_CONTEXT ( 3 ) GLOBAL_UNCERTAINTY_ASSIGNED_CONTEXT ( ( #205 ) ) GLOBAL_UNIT_ASSIGNED_CONTEXT ( ( #140, #68, #8 ) ) REPRESENTATION_CONTEXT ( 'NONE', 'WORKASPACE' ) );
#159 = APPROVAL_DATE_TIME ( #40, #221 ) ;
#160 = MECHANICAL_CONTEXT ( 'NONE', #143, 'mechanical' ) ;
#161 = APPROVAL_ROLE ( '' ) ;
#162 = COORDINATED_UNIVERSAL_TIME_OFFSET ( 5, 0, .BEHIND. ) ;
#163 = CLOSED_SHELL ( 'NONE', ( #22, #80, #61, #46, #132, #223 ) ) ;
#164 = CC_DESIGN_PERSON_AND_ORGANIZATION_ASSIGNMENT ( #106, #194, ( #114 ) ) ;
#165 = COORDINATED_UNIVERSAL_TIME_OFFSET ( 5, 0, .BEHIND. ) ;
#166 = CARTESIAN_POINT ( 'NONE',  ( 3.000000000000000000, 6.350000000000000500, -6.349999999999999600 ) ) ;
#167 = PERSON_AND_ORGANIZATION ( #16, #49 ) ;
#168 = PERSON_AND_ORGANIZATION ( #16, #49 ) ;
#169 = CARTESIAN_POINT ( 'NONE',  ( -3.000000000000000000, 6.350000000000000500, 6.349999999999997900 ) ) ;
#170 = VECTOR ( 'NONE', #3, 1000.000000000000000 ) ;
#171 = CARTESIAN_POINT ( 'NONE',  ( 3.000000000000000000, 6.350000000000000500, 6.349999999999997900 ) ) ;
#172 = DIRECTION ( 'NONE',  ( 0.0000000000000000000, -1.000000000000000000, 2.048885995248197400E-016 ) ) ;
#173 = APPLICATION_CONTEXT ( 'configuration controlled 3d designs of mechanical parts and assemblies' ) ;
#174 = DIRECTION ( 'NONE',  ( 1.000000000000000000, 0.0000000000000000000, 0.0000000000000000000 ) ) ;
#175 = APPROVAL_ROLE ( '' ) ;
#176 = AXIS2_PLACEMENT_3D ( 'NONE', #171, #26, #85 ) ;
#177 = EDGE_LOOP ( 'NONE', ( #179, #117, #208, #198 ) ) ;
#178 = LINE ( 'NONE', #87, #29 ) ;
#179 = ORIENTED_EDGE ( 'NONE', *, *, #36, .T. ) ;
#180 = DIRECTION ( 'NONE',  ( 1.000000000000000000, 0.0000000000000000000, 0.0000000000000000000 ) ) ;
#181 = LINE ( 'NONE', #25, #96 ) ;
#182 = CARTESIAN_POINT ( 'NONE',  ( 3.000000000000000000, -6.349999999999997900, 6.350000000000000500 ) ) ;
#183 = CARTESIAN_POINT ( 'NONE',  ( -3.000000000000000000, -6.349999999999997900, -6.350000000000002300 ) ) ;
#184 = LOCAL_TIME ( 15, 20, 26.00000000000000000, #165 ) ;
#185 = CARTESIAN_POINT ( 'NONE',  ( 3.000000000000000000, 6.350000000000000500, -6.349999999999999600 ) ) ;
#186 = LINE ( 'NONE', #63, #50 ) ;
#187 = SECURITY_CLASSIFICATION ( '', '', #197 ) ;
#188 = CARTESIAN_POINT ( 'NONE',  ( -3.000000000000000000, 0.0000000000000000000, 0.0000000000000000000 ) ) ;
#189 = APPROVAL_DATE_TIME ( #56, #216 ) ;
#190 = DIRECTION ( 'NONE',  ( -1.000000000000000000, -0.0000000000000000000, -0.0000000000000000000 ) ) ;
#191 = FACE_OUTER_BOUND ( 'NONE', #66, .T. ) ;
#192 = DIRECTION ( 'NONE',  ( -1.000000000000000000, -0.0000000000000000000, -0.0000000000000000000 ) ) ;
#193 = LINE ( 'NONE', #204, #59 ) ;
#194 = PERSON_AND_ORGANIZATION_ROLE ( 'creator' ) ;
#195 = EDGE_CURVE ( 'NONE', #39, #142, #229, .T. ) ;
#196 = PERSON_AND_ORGANIZATION_ROLE ( 'classification_officer' ) ;
#197 = SECURITY_CLASSIFICATION_LEVEL ( 'unclassified' ) ;
#198 = ORIENTED_EDGE ( 'NONE', *, *, #82, .T. ) ;
#199 = AXIS2_PLACEMENT_3D ( 'NONE', #123, #144, #30 ) ;
#200 = LINE ( 'NONE', #51, #128 ) ;
#201 = DESIGN_CONTEXT ( 'detailed design', #173, 'design' ) ;
#202 = CC_DESIGN_DATE_AND_TIME_ASSIGNMENT ( #234, #214, ( #187 ) ) ;
#203 = PLANE ( 'NONE',  #52 ) ;
#204 = CARTESIAN_POINT ( 'NONE',  ( -3.000000000000000000, 6.350000000000000500, 6.349999999999997900 ) ) ;
#205 = UNCERTAINTY_MEASURE_WITH_UNIT (LENGTH_MEASURE( 1.000000000000000100E-005 ), #140, 'distance_accuracy_value', 'NONE');
#206 = AXIS2_PLACEMENT_3D ( 'NONE', #188, #174, #32 ) ;
#207 = CARTESIAN_POINT ( 'NONE',  ( -3.000000000000000000, 6.350000000000000500, -6.349999999999999600 ) ) ;
#208 = ORIENTED_EDGE ( 'NONE', *, *, #113, .F. ) ;
#209 = CARTESIAN_POINT ( 'NONE',  ( 3.000000000000000000, 6.350000000000000500, -6.349999999999999600 ) ) ;
#210 = CARTESIAN_POINT ( 'NONE',  ( 3.000000000000000000, -6.349999999999997900, -6.350000000000002300 ) ) ;
#211 = PRODUCT_DEFINITION ( 'UNKNOWN', '', #114, #201 ) ;
#212 = APPROVAL_STATUS ( 'not_yet_approved' ) ;
#213 = VECTOR ( 'NONE', #190, 1000.000000000000000 ) ;
#214 = DATE_TIME_ROLE ( 'classification_date' ) ;
#215 = LINE ( 'NONE', #121, #93 ) ;
#216 = APPROVAL ( #112, 'UNSPECIFIED' ) ;
#217 = VERTEX_POINT ( 'NONE', #122 ) ;
#218 = PRODUCT ( 'Web Model 43772_43776', 'Web Model 43772_43776', '', ( #160 ) ) ;
#219 = ORIENTED_EDGE ( 'NONE', *, *, #82, .F. ) ;
#220 = CARTESIAN_POINT ( 'NONE',  ( 3.000000000000000000, 6.350000000000000500, 6.349999999999997900 ) ) ;
#221 = APPROVAL ( #74, 'UNSPECIFIED' ) ;
#222 = ORIENTED_EDGE ( 'NONE', *, *, #153, .F. ) ;
#223 = ADVANCED_FACE ( 'NONE', ( #191 ), #70, .F. ) ;
#224 = CARTESIAN_POINT ( 'NONE',  ( 3.000000000000000000, 6.350000000000000500, 6.349999999999997900 ) ) ;
#225 = AXIS2_PLACEMENT_3D ( 'NONE', #182, #84, #64 ) ;
#226 = ORIENTED_EDGE ( 'NONE', *, *, #230, .F. ) ;
#227 = EDGE_CURVE ( 'NONE', #142, #111, #178, .T. ) ;
#228 = APPLICATION_PROTOCOL_DEFINITION ( 'international standard', 'config_control_design', 1994, #143 ) ;
#229 = LINE ( 'NONE', #210, #81 ) ;
#230 = EDGE_CURVE ( 'NONE', #13, #111, #18, .T. ) ;
#231 = PERSON_AND_ORGANIZATION_ROLE ( 'design_supplier' ) ;
#232 = COORDINATED_UNIVERSAL_TIME_OFFSET ( 5, 0, .BEHIND. ) ;
#233 = ORIENTED_EDGE ( 'NONE', *, *, #75, .F. ) ;
#234 = DATE_AND_TIME ( #43, #86 ) ;
#235 = APPROVAL_PERSON_ORGANIZATION ( #167, #216, #161 ) ;
#236 = ORIENTED_EDGE ( 'NONE', *, *, #71, .F. ) ;
#237 = CC_DESIGN_PERSON_AND_ORGANIZATION_ASSIGNMENT ( #57, #231, ( #114 ) ) ;
ENDSEC;
END-ISO-10303-21;
