ISO-10303-21;
HEADER;
FILE_DESCRIPTION (( 'STEP AP203' ),
    '1' );
FILE_NAME ('Web Model 39234_39256.step',
    '2018-07-25T17:11:06',
    ( '' ),
    ( '' ),
    'SwSTEP 2.0',
    'SolidWorks 2016',
    '' );
FILE_SCHEMA (( 'CONFIG_CONTROL_DESIGN' ));
ENDSEC;

DATA;
#1 = CARTESIAN_POINT ( 'NONE',  ( 0.0000000000000000000, 0.0000000000000000000, 0.5000000000000000000 ) ) ;
#2 = CIRCLE ( 'NONE', #137, 15.00000000000000000 ) ;
#3 = PERSON_AND_ORGANIZATION_ROLE ( 'design_supplier' ) ;
#4 = DATE_TIME_ROLE ( 'creation_date' ) ;
#5 = ORIENTED_EDGE ( 'NONE', *, *, #11, .T. ) ;
#6 = APPROVAL_PERSON_ORGANIZATION ( #37, #19, #15 ) ;
#7 = CARTESIAN_POINT ( 'NONE',  ( 15.00000000000000000, 1.836970198721029600E-015, 0.5000000000000000000 ) ) ;
#8 = AXIS2_PLACEMENT_3D ( 'NONE', #1, #151, #162 ) ;
#9 = AXIS2_PLACEMENT_3D ( 'NONE', #130, #173, #30 ) ;
#10 = LOCAL_TIME ( 13, 11, 6.000000000000000000, #146 ) ;
#11 = EDGE_CURVE ( 'NONE', #103, #119, #121, .T. ) ;
#12 = APPROVAL_DATE_TIME ( #105, #70 ) ;
#13 =( LENGTH_UNIT ( ) NAMED_UNIT ( * ) SI_UNIT ( .MILLI., .METRE. ) );
#14 = VECTOR ( 'NONE', #133, 1000.000000000000000 ) ;
#15 = APPROVAL_ROLE ( '' ) ;
#16 = DIRECTION ( 'NONE',  ( -0.0000000000000000000, -0.0000000000000000000, -1.000000000000000000 ) ) ;
#17 = DIRECTION ( 'NONE',  ( 1.000000000000000000, 0.0000000000000000000, 0.0000000000000000000 ) ) ;
#18 = VECTOR ( 'NONE', #16, 1000.000000000000000 ) ;
#19 = APPROVAL ( #110, 'UNSPECIFIED' ) ;
#20 = PLANE ( 'NONE',  #72 ) ;
#21 = FACE_OUTER_BOUND ( 'NONE', #75, .T. ) ;
#22 = DESIGN_CONTEXT ( 'detailed design', #38, 'design' ) ;
#23 = CARTESIAN_POINT ( 'NONE',  ( -15.00000000000000000, 0.0000000000000000000, 0.5000000000000000000 ) ) ;
#24 = APPROVAL_PERSON_ORGANIZATION ( #165, #70, #50 ) ;
#25 = LOCAL_TIME ( 13, 11, 6.000000000000000000, #171 ) ;
#26 = CARTESIAN_POINT ( 'NONE',  ( 0.0000000000000000000, 0.0000000000000000000, 0.5000000000000000000 ) ) ;
#27 = APPLICATION_CONTEXT ( 'configuration controlled 3d designs of mechanical parts and assemblies' ) ;
#28 = PRODUCT_RELATED_PRODUCT_CATEGORY ( 'detail', '', ( #83 ) ) ;
#29 = CARTESIAN_POINT ( 'NONE',  ( 0.0000000000000000000, 0.0000000000000000000, 0.5000000000000000000 ) ) ;
#30 = DIRECTION ( 'NONE',  ( 1.000000000000000000, 0.0000000000000000000, 0.0000000000000000000 ) ) ;
#31 = DATE_AND_TIME ( #96, #25 ) ;
#32 = DIRECTION ( 'NONE',  ( 1.000000000000000000, 0.0000000000000000000, 0.0000000000000000000 ) ) ;
#33 = DATE_AND_TIME ( #149, #39 ) ;
#34 = DIRECTION ( 'NONE',  ( 0.0000000000000000000, 0.0000000000000000000, 1.000000000000000000 ) ) ;
#35 = APPLICATION_PROTOCOL_DEFINITION ( 'international standard', 'config_control_design', 1994, #27 ) ;
#36 = ORIENTED_EDGE ( 'NONE', *, *, #167, .T. ) ;
#37 = PERSON_AND_ORGANIZATION ( #53, #108 ) ;
#38 = APPLICATION_CONTEXT ( 'configuration controlled 3d designs of mechanical parts and assemblies' ) ;
#39 = LOCAL_TIME ( 13, 11, 6.000000000000000000, #76 ) ;
#40 = APPROVAL_STATUS ( 'not_yet_approved' ) ;
#41 = CALENDAR_DATE ( 2018, 25, 7 ) ;
#42 = PRODUCT_DEFINITION_FORMATION_WITH_SPECIFIED_SOURCE ( 'ANY', '', #83, .NOT_KNOWN. ) ;
#43 = ADVANCED_FACE ( 'NONE', ( #52 ), #90, .T. ) ;
#44 = DIRECTION ( 'NONE',  ( 0.0000000000000000000, 0.0000000000000000000, 1.000000000000000000 ) ) ;
#45 = VERTEX_POINT ( 'NONE', #7 ) ;
#46 = EDGE_CURVE ( 'NONE', #119, #103, #2, .T. ) ;
#47 = FACE_OUTER_BOUND ( 'NONE', #95, .T. ) ;
#48 = CARTESIAN_POINT ( 'NONE',  ( 0.0000000000000000000, 0.0000000000000000000, 0.0000000000000000000 ) ) ;
#49 = APPROVAL_STATUS ( 'not_yet_approved' ) ;
#51 = ORIENTED_EDGE ( 'NONE', *, *, #46, .F. ) ;
#50 = APPROVAL_ROLE ( '' ) ;
#52 = FACE_OUTER_BOUND ( 'NONE', #115, .T. ) ;
#53 = PERSON ( 'UNSPECIFIED', 'UNSPECIFIED', 'UNSPECIFIED', ('UNSPECIFIED'), ('UNSPECIFIED'), ('UNSPECIFIED') ) ;
#54 = COORDINATED_UNIVERSAL_TIME_OFFSET ( 5, 0, .BEHIND. ) ;
#55 = ORIENTED_EDGE ( 'NONE', *, *, #167, .F. ) ;
#56 = SECURITY_CLASSIFICATION_LEVEL ( 'unclassified' ) ;
#57 = EDGE_CURVE ( 'NONE', #45, #103, #82, .T. ) ;
#58 = CARTESIAN_POINT ( 'NONE',  ( -15.00000000000000000, 0.0000000000000000000, 0.5000000000000000000 ) ) ;
#59 = PERSON_AND_ORGANIZATION ( #53, #108 ) ;
#60 = DIRECTION ( 'NONE',  ( 0.0000000000000000000, 0.0000000000000000000, 1.000000000000000000 ) ) ;
#61 = AXIS2_PLACEMENT_3D ( 'NONE', #62, #34, #79 ) ;
#62 = CARTESIAN_POINT ( 'NONE',  ( 0.0000000000000000000, 0.0000000000000000000, 0.5000000000000000000 ) ) ;
#63 = ORIENTED_EDGE ( 'NONE', *, *, #86, .T. ) ;
#64 = MECHANICAL_CONTEXT ( 'NONE', #27, 'mechanical' ) ;
#65 = AXIS2_PLACEMENT_3D ( 'NONE', #29, #68, #113 ) ;
#66 = CC_DESIGN_PERSON_AND_ORGANIZATION_ASSIGNMENT ( #84, #81, ( #83 ) ) ;
#67 = CIRCLE ( 'NONE', #143, 15.00000000000000000 ) ;
#68 = DIRECTION ( 'NONE',  ( -0.0000000000000000000, -0.0000000000000000000, -1.000000000000000000 ) ) ;
#69 = CARTESIAN_POINT ( 'NONE',  ( 0.0000000000000000000, 0.0000000000000000000, -0.5000000000000000000 ) ) ;
#70 = APPROVAL ( #49, 'UNSPECIFIED' ) ;
#71 = PERSON_AND_ORGANIZATION ( #53, #108 ) ;
#72 = AXIS2_PLACEMENT_3D ( 'NONE', #127, #44, #132 ) ;
#73 = DATE_AND_TIME ( #112, #150 ) ;
#74 = PRODUCT_DEFINITION ( 'UNKNOWN', '', #42, #22 ) ;
#75 = EDGE_LOOP ( 'NONE', ( #63, #36 ) ) ;
#76 = COORDINATED_UNIVERSAL_TIME_OFFSET ( 5, 0, .BEHIND. ) ;
#77 = CARTESIAN_POINT ( 'NONE',  ( -15.00000000000000000, 0.0000000000000000000, -0.5000000000000000000 ) ) ;
#78 = CC_DESIGN_APPROVAL ( #70, ( #74 ) ) ;
#79 = DIRECTION ( 'NONE',  ( 1.000000000000000000, 0.0000000000000000000, -0.0000000000000000000 ) ) ;
#80 = ADVANCED_BREP_SHAPE_REPRESENTATION ( 'Web Model 39234_39256', ( #111, #106 ), #155 ) ;
#81 = PERSON_AND_ORGANIZATION_ROLE ( 'design_owner' ) ;
#82 = LINE ( 'NONE', #156, #18 ) ;
#83 = PRODUCT ( 'Web Model 39234_39256', 'Web Model 39234_39256', '', ( #64 ) ) ;
#84 = PERSON_AND_ORGANIZATION ( #53, #108 ) ;
#85 = DATE_TIME_ROLE ( 'classification_date' ) ;
#86 = EDGE_CURVE ( 'NONE', #118, #45, #174, .T. ) ;
#87 = CC_DESIGN_SECURITY_CLASSIFICATION ( #114, ( #42 ) ) ;
#88 = APPROVAL_ROLE ( '' ) ;
#89 = LINE ( 'NONE', #23, #14 ) ;
#90 = CYLINDRICAL_SURFACE ( 'NONE', #65, 15.00000000000000000 ) ;
#91 = CARTESIAN_POINT ( 'NONE',  ( 15.00000000000000000, 1.836970198721029600E-015, -0.5000000000000000000 ) ) ;
#92 = APPROVAL ( #40, 'UNSPECIFIED' ) ;
#93 = ORIENTED_EDGE ( 'NONE', *, *, #135, .T. ) ;
#94 = CC_DESIGN_APPROVAL ( #92, ( #42 ) ) ;
#95 = EDGE_LOOP ( 'NONE', ( #141, #153, #93, #160 ) ) ;
#96 = CALENDAR_DATE ( 2018, 25, 7 ) ;
#97 = DIRECTION ( 'NONE',  ( 1.000000000000000000, 0.0000000000000000000, 0.0000000000000000000 ) ) ;
#98 = DIRECTION ( 'NONE',  ( 1.000000000000000000, 0.0000000000000000000, 0.0000000000000000000 ) ) ;
#99 = PERSON_AND_ORGANIZATION ( #53, #108 ) ;
#100 = CC_DESIGN_PERSON_AND_ORGANIZATION_ASSIGNMENT ( #99, #139, ( #42 ) ) ;
#101 = EDGE_LOOP ( 'NONE', ( #51, #145 ) ) ;
#102 = ORIENTED_EDGE ( 'NONE', *, *, #57, .T. ) ;
#103 = VERTEX_POINT ( 'NONE', #91 ) ;
#104 = UNCERTAINTY_MEASURE_WITH_UNIT (LENGTH_MEASURE( 1.000000000000000100E-005 ), #13, 'distance_accuracy_value', 'NONE');
#105 = DATE_AND_TIME ( #41, #125 ) ;
#106 = AXIS2_PLACEMENT_3D ( 'NONE', #48, #136, #97 ) ;
#107 = CLOSED_SHELL ( 'NONE', ( #43, #172, #170, #117 ) ) ;
#108 = ORGANIZATION ( 'UNSPECIFIED', 'UNSPECIFIED', '' ) ;
#109 = PERSON_AND_ORGANIZATION_ROLE ( 'classification_officer' ) ;
#110 = APPROVAL_STATUS ( 'not_yet_approved' ) ;
#111 = MANIFOLD_SOLID_BREP ( 'Boss-Extrude1', #107 ) ;
#112 = CALENDAR_DATE ( 2018, 25, 7 ) ;
#113 = DIRECTION ( 'NONE',  ( -1.000000000000000000, 0.0000000000000000000, 0.0000000000000000000 ) ) ;
#114 = SECURITY_CLASSIFICATION ( '', '', #56 ) ;
#115 = EDGE_LOOP ( 'NONE', ( #55, #102, #5, #128 ) ) ;
#116 = APPROVAL_PERSON_ORGANIZATION ( #154, #92, #88 ) ;
#117 = ADVANCED_FACE ( 'NONE', ( #124 ), #20, .F. ) ;
#118 = VERTEX_POINT ( 'NONE', #58 ) ;
#119 = VERTEX_POINT ( 'NONE', #77 ) ;
#120 = AXIS2_PLACEMENT_3D ( 'NONE', #69, #168, #17 ) ;
#121 = CIRCLE ( 'NONE', #120, 15.00000000000000000 ) ;
#122 = APPLICATION_PROTOCOL_DEFINITION ( 'international standard', 'config_control_design', 1994, #38 ) ;
#123 = DIRECTION ( 'NONE',  ( 0.0000000000000000000, 0.0000000000000000000, 1.000000000000000000 ) ) ;
#124 = FACE_OUTER_BOUND ( 'NONE', #101, .T. ) ;
#125 = LOCAL_TIME ( 13, 11, 6.000000000000000000, #54 ) ;
#126 = CYLINDRICAL_SURFACE ( 'NONE', #8, 15.00000000000000000 ) ;
#127 = CARTESIAN_POINT ( 'NONE',  ( 0.0000000000000000000, 0.0000000000000000000, -0.5000000000000000000 ) ) ;
#128 = ORIENTED_EDGE ( 'NONE', *, *, #135, .F. ) ;
#129 = COORDINATED_UNIVERSAL_TIME_OFFSET ( 5, 0, .BEHIND. ) ;
#130 = CARTESIAN_POINT ( 'NONE',  ( 0.0000000000000000000, 0.0000000000000000000, 0.5000000000000000000 ) ) ;
#131 = DATE_AND_TIME ( #142, #10 ) ;
#132 = DIRECTION ( 'NONE',  ( 1.000000000000000000, 0.0000000000000000000, -0.0000000000000000000 ) ) ;
#133 = DIRECTION ( 'NONE',  ( -0.0000000000000000000, -0.0000000000000000000, -1.000000000000000000 ) ) ;
#134 =( NAMED_UNIT ( * ) PLANE_ANGLE_UNIT ( ) SI_UNIT ( $, .RADIAN. ) );
#135 = EDGE_CURVE ( 'NONE', #118, #119, #89, .T. ) ;
#136 = DIRECTION ( 'NONE',  ( 0.0000000000000000000, 0.0000000000000000000, 1.000000000000000000 ) ) ;
#137 = AXIS2_PLACEMENT_3D ( 'NONE', #144, #60, #32 ) ;
#138 = APPROVAL_DATE_TIME ( #33, #92 ) ;
#139 = PERSON_AND_ORGANIZATION_ROLE ( 'creator' ) ;
#140 = PERSON_AND_ORGANIZATION_ROLE ( 'creator' ) ;
#141 = ORIENTED_EDGE ( 'NONE', *, *, #57, .F. ) ;
#142 = CALENDAR_DATE ( 2018, 25, 7 ) ;
#143 = AXIS2_PLACEMENT_3D ( 'NONE', #26, #123, #98 ) ;
#144 = CARTESIAN_POINT ( 'NONE',  ( 0.0000000000000000000, 0.0000000000000000000, -0.5000000000000000000 ) ) ;
#145 = ORIENTED_EDGE ( 'NONE', *, *, #11, .F. ) ;
#146 = COORDINATED_UNIVERSAL_TIME_OFFSET ( 5, 0, .BEHIND. ) ;
#147 = CC_DESIGN_PERSON_AND_ORGANIZATION_ASSIGNMENT ( #71, #140, ( #74 ) ) ;
#148 = PLANE ( 'NONE',  #61 ) ;
#149 = CALENDAR_DATE ( 2018, 25, 7 ) ;
#150 = LOCAL_TIME ( 13, 11, 6.000000000000000000, #129 ) ;
#151 = DIRECTION ( 'NONE',  ( -0.0000000000000000000, -0.0000000000000000000, -1.000000000000000000 ) ) ;
#152 = CC_DESIGN_PERSON_AND_ORGANIZATION_ASSIGNMENT ( #166, #109, ( #114 ) ) ;
#153 = ORIENTED_EDGE ( 'NONE', *, *, #86, .F. ) ;
#154 = PERSON_AND_ORGANIZATION ( #53, #108 ) ;
#155 =( GEOMETRIC_REPRESENTATION_CONTEXT ( 3 ) GLOBAL_UNCERTAINTY_ASSIGNED_CONTEXT ( ( #104 ) ) GLOBAL_UNIT_ASSIGNED_CONTEXT ( ( #13, #134, #163 ) ) REPRESENTATION_CONTEXT ( 'NONE', 'WORKASPACE' ) );
#156 = CARTESIAN_POINT ( 'NONE',  ( 15.00000000000000000, 1.836970198721029600E-015, 0.5000000000000000000 ) ) ;
#157 = PRODUCT_DEFINITION_SHAPE ( 'NONE', 'NONE',  #74 ) ;
#158 = CC_DESIGN_PERSON_AND_ORGANIZATION_ASSIGNMENT ( #59, #3, ( #42 ) ) ;
#159 = CC_DESIGN_DATE_AND_TIME_ASSIGNMENT ( #73, #85, ( #114 ) ) ;
#160 = ORIENTED_EDGE ( 'NONE', *, *, #46, .T. ) ;
#161 = SHAPE_DEFINITION_REPRESENTATION ( #157, #80 ) ;
#162 = DIRECTION ( 'NONE',  ( -1.000000000000000000, 0.0000000000000000000, 0.0000000000000000000 ) ) ;
#163 =( NAMED_UNIT ( * ) SI_UNIT ( $, .STERADIAN. ) SOLID_ANGLE_UNIT ( ) );
#164 = CC_DESIGN_DATE_AND_TIME_ASSIGNMENT ( #31, #4, ( #74 ) ) ;
#165 = PERSON_AND_ORGANIZATION ( #53, #108 ) ;
#166 = PERSON_AND_ORGANIZATION ( #53, #108 ) ;
#167 = EDGE_CURVE ( 'NONE', #45, #118, #67, .T. ) ;
#168 = DIRECTION ( 'NONE',  ( 0.0000000000000000000, 0.0000000000000000000, 1.000000000000000000 ) ) ;
#169 = CC_DESIGN_APPROVAL ( #19, ( #114 ) ) ;
#170 = ADVANCED_FACE ( 'NONE', ( #21 ), #148, .T. ) ;
#171 = COORDINATED_UNIVERSAL_TIME_OFFSET ( 5, 0, .BEHIND. ) ;
#172 = ADVANCED_FACE ( 'NONE', ( #47 ), #126, .T. ) ;
#173 = DIRECTION ( 'NONE',  ( 0.0000000000000000000, 0.0000000000000000000, 1.000000000000000000 ) ) ;
#174 = CIRCLE ( 'NONE', #9, 15.00000000000000000 ) ;
#175 = APPROVAL_DATE_TIME ( #131, #19 ) ;
ENDSEC;
END-ISO-10303-21;
