ISO-10303-21;
HEADER;
FILE_DESCRIPTION (( 'STEP AP203' ),
    '1' );
FILE_NAME ('Web Model 19837_22694.step',
    '2022-05-24T16:12:29',
    ( 'WC' ),
    ( 'Windows Central' ),
    'SwSTEP 2.0',
    'SolidWorks 2021',
    '' );
FILE_SCHEMA (( 'CONFIG_CONTROL_DESIGN' ));
ENDSEC;

DATA;
#1 = CALENDAR_DATE ( 2022, 24, 5 ) ;
#2 = ADVANCED_FACE ( 'NONE', ( #159 ), #47, .T. ) ;
#3 = APPLICATION_CONTEXT ( 'configuration controlled 3d designs of mechanical parts and assemblies' ) ;
#4 = APPROVAL_ROLE ( '' ) ;
#5 = LOCAL_TIME ( 12, 12, 29.00000000000000000, #22 ) ;
#6 = CLOSED_SHELL ( 'NONE', ( #110, #2, #143, #61 ) ) ;
#7 = DIRECTION ( 'NONE',  ( -1.000000000000000000, 0.000000000000000000, 0.000000000000000000 ) ) ;
#8 = ORIENTED_EDGE ( 'NONE', *, *, #58, .F. ) ;
#9 = EDGE_LOOP ( 'NONE', ( #144, #52 ) ) ;
#10 = CYLINDRICAL_SURFACE ( 'NONE', #81, 10.00000000000000000 ) ;
#11 = EDGE_LOOP ( 'NONE', ( #103, #48, #45, #66 ) ) ;
#12 = DATE_AND_TIME ( #1, #5 ) ;
#13 = PRODUCT_RELATED_PRODUCT_CATEGORY ( 'detail', '', ( #139 ) ) ;
#14 = PERSON_AND_ORGANIZATION ( #152, #174 ) ;
#15 = DATE_TIME_ROLE ( 'classification_date' ) ;
#16 = ORIENTED_EDGE ( 'NONE', *, *, #150, .T. ) ;
#17 = LOCAL_TIME ( 12, 12, 29.00000000000000000, #84 ) ;
#18 = EDGE_CURVE ( 'NONE', #87, #133, #25, .T. ) ;
#19 = CARTESIAN_POINT ( 'NONE',  ( 0.000000000000000000, 0.000000000000000000, 1.000000000000000000 ) ) ;
#20 = ORIENTED_EDGE ( 'NONE', *, *, #130, .T. ) ;
#21 = DIRECTION ( 'NONE',  ( 0.000000000000000000, 0.000000000000000000, 1.000000000000000000 ) ) ;
#22 = COORDINATED_UNIVERSAL_TIME_OFFSET ( 5, 0, .BEHIND. ) ;
#23 = CC_DESIGN_PERSON_AND_ORGANIZATION_ASSIGNMENT ( #140, #43, ( #91 ) ) ;
#24 = PERSON_AND_ORGANIZATION ( #152, #174 ) ;
#25 = CIRCLE ( 'NONE', #129, 10.00000000000000000 ) ;
#26 = PERSON_AND_ORGANIZATION_ROLE ( 'creator' ) ;
#27 = COORDINATED_UNIVERSAL_TIME_OFFSET ( 5, 0, .BEHIND. ) ;
#28 = FACE_OUTER_BOUND ( 'NONE', #85, .T. ) ;
#29 = APPROVAL_STATUS ( 'not_yet_approved' ) ;
#30 = CARTESIAN_POINT ( 'NONE',  ( 0.000000000000000000, 0.000000000000000000, 0.000000000000000000 ) ) ;
#31 = EDGE_CURVE ( 'NONE', #133, #87, #126, .T. ) ;
#32 = EDGE_LOOP ( 'NONE', ( #70, #131 ) ) ;
#33 = PLANE ( 'NONE',  #39 ) ;
#34 = CALENDAR_DATE ( 2022, 24, 5 ) ;
#35 = DIRECTION ( 'NONE',  ( 0.000000000000000000, 0.000000000000000000, 1.000000000000000000 ) ) ;
#36 = APPROVAL ( #105, 'UNSPECIFIED' ) ;
#37 = DIRECTION ( 'NONE',  ( 1.000000000000000000, 0.000000000000000000, 0.000000000000000000 ) ) ;
#38 = APPROVAL_PERSON_ORGANIZATION ( #123, #164, #173 ) ;
#39 = AXIS2_PLACEMENT_3D ( 'NONE', #117, #49, #86 ) ;
#40 = SECURITY_CLASSIFICATION_LEVEL ( 'unclassified' ) ;
#41 = CC_DESIGN_PERSON_AND_ORGANIZATION_ASSIGNMENT ( #113, #155, ( #68 ) ) ;
#42 = VECTOR ( 'NONE', #146, 1000.000000000000000 ) ;
#43 = PERSON_AND_ORGANIZATION_ROLE ( 'classification_officer' ) ;
#44 = DIRECTION ( 'NONE',  ( -0.000000000000000000, -0.000000000000000000, -1.000000000000000000 ) ) ;
#45 = ORIENTED_EDGE ( 'NONE', *, *, #58, .T. ) ;
#46 = AXIS2_PLACEMENT_3D ( 'NONE', #137, #57, #37 ) ;
#47 = CYLINDRICAL_SURFACE ( 'NONE', #98, 10.00000000000000000 ) ;
#48 = ORIENTED_EDGE ( 'NONE', *, *, #18, .F. ) ;
#49 = DIRECTION ( 'NONE',  ( 0.000000000000000000, 0.000000000000000000, 1.000000000000000000 ) ) ;
#50 = AXIS2_PLACEMENT_3D ( 'NONE', #30, #35, #59 ) ;
#51 = DIRECTION ( 'NONE',  ( 1.000000000000000000, 0.000000000000000000, -0.000000000000000000 ) ) ;
#52 = ORIENTED_EDGE ( 'NONE', *, *, #130, .F. ) ;
#53 = MANIFOLD_SOLID_BREP ( 'Boss-Extrude1', #6 ) ;
#54 = FACE_OUTER_BOUND ( 'NONE', #9, .T. ) ;
#55 = DIRECTION ( 'NONE',  ( -0.000000000000000000, -0.000000000000000000, -1.000000000000000000 ) ) ;
#56 = VERTEX_POINT ( 'NONE', #157 ) ;
#57 = DIRECTION ( 'NONE',  ( 0.000000000000000000, 0.000000000000000000, 1.000000000000000000 ) ) ;
#58 = EDGE_CURVE ( 'NONE', #87, #56, #158, .T. ) ;
#59 = DIRECTION ( 'NONE',  ( 1.000000000000000000, 0.000000000000000000, 0.000000000000000000 ) ) ;
#60 = CC_DESIGN_APPROVAL ( #107, ( #91 ) ) ;
#61 = ADVANCED_FACE ( 'NONE', ( #54 ), #33, .F. ) ;
#62 = APPLICATION_CONTEXT ( 'configuration controlled 3d designs of mechanical parts and assemblies' ) ;
#63 = CC_DESIGN_APPROVAL ( #164, ( #68 ) ) ;
#64 = CALENDAR_DATE ( 2022, 24, 5 ) ;
#65 = DATE_AND_TIME ( #64, #153 ) ;
#66 = ORIENTED_EDGE ( 'NONE', *, *, #172, .T. ) ;
#67 = ORIENTED_EDGE ( 'NONE', *, *, #31, .F. ) ;
#68 = PRODUCT_DEFINITION_FORMATION_WITH_SPECIFIED_SOURCE ( 'ANY', '', #139, .NOT_KNOWN. ) ;
#69 = AXIS2_PLACEMENT_3D ( 'NONE', #83, #21, #120 ) ;
#70 = ORIENTED_EDGE ( 'NONE', *, *, #18, .T. ) ;
#71 = CARTESIAN_POINT ( 'NONE',  ( -10.00000000000000000, 0.000000000000000000, 1.000000000000000000 ) ) ;
#72 = DIRECTION ( 'NONE',  ( 1.000000000000000000, 0.000000000000000000, 0.000000000000000000 ) ) ;
#73 = LOCAL_TIME ( 12, 12, 29.00000000000000000, #77 ) ;
#74 = FACE_OUTER_BOUND ( 'NONE', #32, .T. ) ;
#75 =( LENGTH_UNIT ( ) NAMED_UNIT ( * ) SI_UNIT ( .MILLI., .METRE. ) );
#76 = CC_DESIGN_PERSON_AND_ORGANIZATION_ASSIGNMENT ( #14, #26, ( #68 ) ) ;
#77 = COORDINATED_UNIVERSAL_TIME_OFFSET ( 5, 0, .BEHIND. ) ;
#78 = DATE_TIME_ROLE ( 'creation_date' ) ;
#79 = PERSON_AND_ORGANIZATION_ROLE ( 'design_owner' ) ;
#80 = CC_DESIGN_DATE_AND_TIME_ASSIGNMENT ( #12, #78, ( #101 ) ) ;
#81 = AXIS2_PLACEMENT_3D ( 'NONE', #156, #55, #7 ) ;
#82 = SHAPE_DEFINITION_REPRESENTATION ( #111, #124 ) ;
#83 = CARTESIAN_POINT ( 'NONE',  ( 0.000000000000000000, 0.000000000000000000, 0.000000000000000000 ) ) ;
#84 = COORDINATED_UNIVERSAL_TIME_OFFSET ( 5, 0, .BEHIND. ) ;
#85 = EDGE_LOOP ( 'NONE', ( #67, #16, #20, #8 ) ) ;
#86 = DIRECTION ( 'NONE',  ( 1.000000000000000000, 0.000000000000000000, -0.000000000000000000 ) ) ;
#87 = VERTEX_POINT ( 'NONE', #134 ) ;
#88 = PERSON_AND_ORGANIZATION_ROLE ( 'creator' ) ;
#89 = PERSON_AND_ORGANIZATION ( #152, #174 ) ;
#90 = PERSON_AND_ORGANIZATION ( #152, #174 ) ;
#91 = SECURITY_CLASSIFICATION ( '', '', #40 ) ;
#92 = APPLICATION_PROTOCOL_DEFINITION ( 'international standard', 'config_control_design', 1994, #62 ) ;
#93 = LOCAL_TIME ( 12, 12, 29.00000000000000000, #136 ) ;
#94 = CC_DESIGN_PERSON_AND_ORGANIZATION_ASSIGNMENT ( #24, #88, ( #101 ) ) ;
#95 = CALENDAR_DATE ( 2022, 24, 5 ) ;
#96 = APPROVAL_DATE_TIME ( #165, #107 ) ;
#97 = PERSON_AND_ORGANIZATION ( #152, #174 ) ;
#98 = AXIS2_PLACEMENT_3D ( 'NONE', #121, #171, #116 ) ;
#99 = VERTEX_POINT ( 'NONE', #104 ) ;
#100 = DIRECTION ( 'NONE',  ( 0.000000000000000000, 0.000000000000000000, 1.000000000000000000 ) ) ;
#101 = PRODUCT_DEFINITION ( 'UNKNOWN', '', #68, #169 ) ;
#102 = CARTESIAN_POINT ( 'NONE',  ( 0.000000000000000000, 0.000000000000000000, 1.000000000000000000 ) ) ;
#103 = ORIENTED_EDGE ( 'NONE', *, *, #150, .F. ) ;
#104 = CARTESIAN_POINT ( 'NONE',  ( 10.00000000000000000, 1.224646799147353256E-15, 0.000000000000000000 ) ) ;
#105 = APPROVAL_STATUS ( 'not_yet_approved' ) ;
#106 = MECHANICAL_CONTEXT ( 'NONE', #3, 'mechanical' ) ;
#107 = APPROVAL ( #29, 'UNSPECIFIED' ) ;
#108 =( NAMED_UNIT ( * ) SI_UNIT ( $, .STERADIAN. ) SOLID_ANGLE_UNIT ( ) );
#109 =( GEOMETRIC_REPRESENTATION_CONTEXT ( 3 ) GLOBAL_UNCERTAINTY_ASSIGNED_CONTEXT ( ( #132 ) ) GLOBAL_UNIT_ASSIGNED_CONTEXT ( ( #75, #161, #108 ) ) REPRESENTATION_CONTEXT ( 'NONE', 'WORKASPACE' ) );
#110 = ADVANCED_FACE ( 'NONE', ( #28 ), #10, .T. ) ;
#111 = PRODUCT_DEFINITION_SHAPE ( 'NONE', 'NONE',  #101 ) ;
#112 = APPROVAL_PERSON_ORGANIZATION ( #97, #107, #4 ) ;
#113 = PERSON_AND_ORGANIZATION ( #152, #174 ) ;
#114 = LINE ( 'NONE', #167, #166 ) ;
#115 = CC_DESIGN_PERSON_AND_ORGANIZATION_ASSIGNMENT ( #89, #79, ( #139 ) ) ;
#116 = DIRECTION ( 'NONE',  ( -1.000000000000000000, 0.000000000000000000, 0.000000000000000000 ) ) ;
#117 = CARTESIAN_POINT ( 'NONE',  ( 0.000000000000000000, 0.000000000000000000, 0.000000000000000000 ) ) ;
#118 = CC_DESIGN_APPROVAL ( #36, ( #101 ) ) ;
#119 = AXIS2_PLACEMENT_3D ( 'NONE', #102, #100, #72 ) ;
#120 = DIRECTION ( 'NONE',  ( 1.000000000000000000, 0.000000000000000000, 0.000000000000000000 ) ) ;
#121 = CARTESIAN_POINT ( 'NONE',  ( 0.000000000000000000, 0.000000000000000000, 1.000000000000000000 ) ) ;
#122 = CALENDAR_DATE ( 2022, 24, 5 ) ;
#123 = PERSON_AND_ORGANIZATION ( #152, #174 ) ;
#124 = ADVANCED_BREP_SHAPE_REPRESENTATION ( 'Web Model 19837_22694', ( #53, #46 ), #109 ) ;
#125 = DATE_AND_TIME ( #34, #73 ) ;
#126 = CIRCLE ( 'NONE', #119, 10.00000000000000000 ) ;
#127 = APPROVAL_PERSON_ORGANIZATION ( #90, #36, #149 ) ;
#128 = CARTESIAN_POINT ( 'NONE',  ( 0.000000000000000000, 0.000000000000000000, 1.000000000000000000 ) ) ;
#129 = AXIS2_PLACEMENT_3D ( 'NONE', #19, #168, #145 ) ;
#130 = EDGE_CURVE ( 'NONE', #99, #56, #147, .T. ) ;
#131 = ORIENTED_EDGE ( 'NONE', *, *, #31, .T. ) ;
#132 = UNCERTAINTY_MEASURE_WITH_UNIT (LENGTH_MEASURE( 1.000000000000000082E-05 ), #75, 'distance_accuracy_value', 'NONE');
#133 = VERTEX_POINT ( 'NONE', #142 ) ;
#134 = CARTESIAN_POINT ( 'NONE',  ( -10.00000000000000000, 0.000000000000000000, 1.000000000000000000 ) ) ;
#135 = DIRECTION ( 'NONE',  ( 0.000000000000000000, 0.000000000000000000, 1.000000000000000000 ) ) ;
#136 = COORDINATED_UNIVERSAL_TIME_OFFSET ( 5, 0, .BEHIND. ) ;
#137 = CARTESIAN_POINT ( 'NONE',  ( 0.000000000000000000, 0.000000000000000000, 0.000000000000000000 ) ) ;
#138 = CIRCLE ( 'NONE', #50, 10.00000000000000000 ) ;
#139 = PRODUCT ( 'Web Model 19837_22694', 'Web Model 19837_22694', '', ( #106 ) ) ;
#140 = PERSON_AND_ORGANIZATION ( #152, #174 ) ;
#141 = CC_DESIGN_SECURITY_CLASSIFICATION ( #91, ( #68 ) ) ;
#142 = CARTESIAN_POINT ( 'NONE',  ( 10.00000000000000000, 1.224646799147353256E-15, 1.000000000000000000 ) ) ;
#143 = ADVANCED_FACE ( 'NONE', ( #74 ), #170, .T. ) ;
#144 = ORIENTED_EDGE ( 'NONE', *, *, #172, .F. ) ;
#145 = DIRECTION ( 'NONE',  ( 1.000000000000000000, 0.000000000000000000, 0.000000000000000000 ) ) ;
#146 = DIRECTION ( 'NONE',  ( -0.000000000000000000, -0.000000000000000000, -1.000000000000000000 ) ) ;
#147 = CIRCLE ( 'NONE', #69, 10.00000000000000000 ) ;
#148 = APPLICATION_PROTOCOL_DEFINITION ( 'international standard', 'config_control_design', 1994, #3 ) ;
#149 = APPROVAL_ROLE ( '' ) ;
#150 = EDGE_CURVE ( 'NONE', #133, #99, #114, .T. ) ;
#151 = APPROVAL_DATE_TIME ( #125, #36 ) ;
#152 = PERSON ( 'UNSPECIFIED', 'UNSPECIFIED', 'UNSPECIFIED', ('UNSPECIFIED'), ('UNSPECIFIED'), ('UNSPECIFIED') ) ;
#153 = LOCAL_TIME ( 12, 12, 29.00000000000000000, #27 ) ;
#154 = APPROVAL_STATUS ( 'not_yet_approved' ) ;
#155 = PERSON_AND_ORGANIZATION_ROLE ( 'design_supplier' ) ;
#156 = CARTESIAN_POINT ( 'NONE',  ( 0.000000000000000000, 0.000000000000000000, 1.000000000000000000 ) ) ;
#157 = CARTESIAN_POINT ( 'NONE',  ( -10.00000000000000000, 0.000000000000000000, 0.000000000000000000 ) ) ;
#158 = LINE ( 'NONE', #71, #42 ) ;
#159 = FACE_OUTER_BOUND ( 'NONE', #11, .T. ) ;
#160 = DATE_AND_TIME ( #122, #93 ) ;
#161 =( NAMED_UNIT ( * ) PLANE_ANGLE_UNIT ( ) SI_UNIT ( $, .RADIAN. ) );
#162 = APPROVAL_DATE_TIME ( #160, #164 ) ;
#163 = CC_DESIGN_DATE_AND_TIME_ASSIGNMENT ( #65, #15, ( #91 ) ) ;
#164 = APPROVAL ( #154, 'UNSPECIFIED' ) ;
#165 = DATE_AND_TIME ( #95, #17 ) ;
#166 = VECTOR ( 'NONE', #44, 1000.000000000000000 ) ;
#167 = CARTESIAN_POINT ( 'NONE',  ( 10.00000000000000000, 1.224646799147353256E-15, 1.000000000000000000 ) ) ;
#168 = DIRECTION ( 'NONE',  ( 0.000000000000000000, 0.000000000000000000, 1.000000000000000000 ) ) ;
#169 = DESIGN_CONTEXT ( 'detailed design', #62, 'design' ) ;
#170 = PLANE ( 'NONE',  #175 ) ;
#171 = DIRECTION ( 'NONE',  ( -0.000000000000000000, -0.000000000000000000, -1.000000000000000000 ) ) ;
#172 = EDGE_CURVE ( 'NONE', #56, #99, #138, .T. ) ;
#173 = APPROVAL_ROLE ( '' ) ;
#174 = ORGANIZATION ( 'UNSPECIFIED', 'UNSPECIFIED', '' ) ;
#175 = AXIS2_PLACEMENT_3D ( 'NONE', #128, #135, #51 ) ;
ENDSEC;
END-ISO-10303-21;
