ISO-10303-21;
HEADER;
FILE_DESCRIPTION (( 'STEP AP203' ),
    '1' );
FILE_NAME ('Web Model 37128MX_15779.step',
    '2020-10-19T15:43:53',
    ( '' ),
    ( '' ),
    'SwSTEP 2.0',
    'SolidWorks 2018',
    '' );
FILE_SCHEMA (( 'CONFIG_CONTROL_DESIGN' ));
ENDSEC;

DATA;
#1 = FACE_OUTER_BOUND ( 'NONE', #77, .T. ) ;
#2 = VECTOR ( 'NONE', #161, 1000.000000000000000 ) ;
#3 = PERSON_AND_ORGANIZATION ( #57, #38 ) ;
#4 = DIRECTION ( 'NONE',  ( 0.0000000000000000000, 0.0000000000000000000, -1.000000000000000000 ) ) ;
#5 = LINE ( 'NONE', #164, #193 ) ;
#6 = DIRECTION ( 'NONE',  ( -0.0000000000000000000, -0.0000000000000000000, -1.000000000000000000 ) ) ;
#7 =( NAMED_UNIT ( * ) SI_UNIT ( $, .STERADIAN. ) SOLID_ANGLE_UNIT ( ) );
#8 = VECTOR ( 'NONE', #185, 1000.000000000000000 ) ;
#9 = CARTESIAN_POINT ( 'NONE',  ( -12.49999999999999467, 12.49999999999999467, 3.000000000000000000 ) ) ;
#10 = CARTESIAN_POINT ( 'NONE',  ( 12.50000000000000533, -12.50000000000000178, 3.000000000000000000 ) ) ;
#11 = DIRECTION ( 'NONE',  ( -1.000000000000000000, 0.0000000000000000000, 0.0000000000000000000 ) ) ;
#12 = LOCAL_TIME ( 11, 43, 53.00000000000000000, #48 ) ;
#13 = VECTOR ( 'NONE', #142, 1000.000000000000000 ) ;
#14 = LOCAL_TIME ( 11, 43, 53.00000000000000000, #106 ) ;
#15 = VECTOR ( 'NONE', #6, 1000.000000000000000 ) ;
#16 = ORIENTED_EDGE ( 'NONE', *, *, #234, .T. ) ;
#17 = AXIS2_PLACEMENT_3D ( 'NONE', #29, #201, #230 ) ;
#18 = ORIENTED_EDGE ( 'NONE', *, *, #207, .F. ) ;
#19 = AXIS2_PLACEMENT_3D ( 'NONE', #216, #210, #103 ) ;
#20 = LINE ( 'NONE', #208, #68 ) ;
#21 = PERSON_AND_ORGANIZATION_ROLE ( 'classification_officer' ) ;
#22 = CARTESIAN_POINT ( 'NONE',  ( 12.50000000000000533, -12.50000000000000178, -3.000000000000000000 ) ) ;
#23 = APPROVAL_STATUS ( 'not_yet_approved' ) ;
#24 = DIRECTION ( 'NONE',  ( 1.000000000000000000, 1.387778780781445676E-16, -0.0000000000000000000 ) ) ;
#25 = CARTESIAN_POINT ( 'NONE',  ( 12.50000000000000533, 12.49999999999999822, 3.000000000000000000 ) ) ;
#26 = CARTESIAN_POINT ( 'NONE',  ( 12.50000000000000533, 12.49999999999999822, 3.000000000000000000 ) ) ;
#27 = APPROVAL_STATUS ( 'not_yet_approved' ) ;
#28 = VERTEX_POINT ( 'NONE', #96 ) ;
#29 = CARTESIAN_POINT ( 'NONE',  ( 12.50000000000000533, -12.50000000000000178, 3.000000000000000000 ) ) ;
#30 = AXIS2_PLACEMENT_3D ( 'NONE', #40, #117, #4 ) ;
#31 = ORIENTED_EDGE ( 'NONE', *, *, #169, .T. ) ;
#32 = CC_DESIGN_PERSON_AND_ORGANIZATION_ASSIGNMENT ( #54, #88, ( #79 ) ) ;
#33 = ORIENTED_EDGE ( 'NONE', *, *, #67, .F. ) ;
#34 = APPROVAL_PERSON_ORGANIZATION ( #89, #110, #86 ) ;
#35 = LINE ( 'NONE', #163, #13 ) ;
#36 = EDGE_LOOP ( 'NONE', ( #31, #232, #151, #135 ) ) ;
#37 = ADVANCED_FACE ( 'NONE', ( #116 ), #78, .F. ) ;
#38 = ORGANIZATION ( 'UNSPECIFIED', 'UNSPECIFIED', '' ) ;
#39 = ORIENTED_EDGE ( 'NONE', *, *, #67, .T. ) ;
#40 = CARTESIAN_POINT ( 'NONE',  ( -12.49999999999999467, -12.50000000000000533, 3.000000000000000000 ) ) ;
#41 = CARTESIAN_POINT ( 'NONE',  ( 12.50000000000000533, -12.50000000000000178, 3.000000000000000000 ) ) ;
#42 = APPROVAL_ROLE ( '' ) ;
#43 = VECTOR ( 'NONE', #233, 1000.000000000000000 ) ;
#44 = CARTESIAN_POINT ( 'NONE',  ( 0.0000000000000000000, 0.0000000000000000000, 0.0000000000000000000 ) ) ;
#45 = CARTESIAN_POINT ( 'NONE',  ( -12.49999999999999467, -12.50000000000000533, 3.000000000000000000 ) ) ;
#46 = AXIS2_PLACEMENT_3D ( 'NONE', #25, #47, #60 ) ;
#47 = DIRECTION ( 'NONE',  ( 1.387778780781445429E-16, -1.000000000000000000, 0.0000000000000000000 ) ) ;
#48 = COORDINATED_UNIVERSAL_TIME_OFFSET ( 5, 0, .BEHIND. ) ;
#49 = CC_DESIGN_PERSON_AND_ORGANIZATION_ASSIGNMENT ( #137, #63, ( #214 ) ) ;
#50 = VECTOR ( 'NONE', #166, 1000.000000000000000 ) ;
#51 = LINE ( 'NONE', #26, #8 ) ;
#52 = ADVANCED_FACE ( 'NONE', ( #90 ), #153, .T. ) ;
#53 = VECTOR ( 'NONE', #85, 1000.000000000000000 ) ;
#54 = PERSON_AND_ORGANIZATION ( #57, #38 ) ;
#55 = DIRECTION ( 'NONE',  ( 1.000000000000000000, 0.0000000000000000000, -0.0000000000000000000 ) ) ;
#56 = CC_DESIGN_APPROVAL ( #154, ( #79 ) ) ;
#57 = PERSON ( 'UNSPECIFIED', 'UNSPECIFIED', 'UNSPECIFIED', ('UNSPECIFIED'), ('UNSPECIFIED'), ('UNSPECIFIED') ) ;
#58 = EDGE_CURVE ( 'NONE', #109, #149, #20, .T. ) ;
#59 = ORIENTED_EDGE ( 'NONE', *, *, #169, .F. ) ;
#60 = DIRECTION ( 'NONE',  ( 1.000000000000000000, 1.387778780781445429E-16, 0.0000000000000000000 ) ) ;
#61 = CARTESIAN_POINT ( 'NONE',  ( 12.50000000000000533, -12.50000000000000178, -3.000000000000000000 ) ) ;
#62 = APPLICATION_CONTEXT ( 'configuration controlled 3d designs of mechanical parts and assemblies' ) ;
#63 = PERSON_AND_ORGANIZATION_ROLE ( 'design_owner' ) ;
#64 = CC_DESIGN_PERSON_AND_ORGANIZATION_ASSIGNMENT ( #187, #213, ( #79 ) ) ;
#65 = LINE ( 'NONE', #127, #53 ) ;
#66 = CARTESIAN_POINT ( 'NONE',  ( 12.50000000000000533, 12.49999999999999822, -3.000000000000000000 ) ) ;
#67 = EDGE_CURVE ( 'NONE', #149, #138, #228, .T. ) ;
#68 = VECTOR ( 'NONE', #24, 1000.000000000000000 ) ;
#69 = COORDINATED_UNIVERSAL_TIME_OFFSET ( 5, 0, .BEHIND. ) ;
#70 = ORIENTED_EDGE ( 'NONE', *, *, #173, .T. ) ;
#71 = PERSON_AND_ORGANIZATION ( #57, #38 ) ;
#72 = CC_DESIGN_DATE_AND_TIME_ASSIGNMENT ( #172, #144, ( #102 ) ) ;
#73 = VECTOR ( 'NONE', #108, 1000.000000000000000 ) ;
#74 = VERTEX_POINT ( 'NONE', #160 ) ;
#75 = EDGE_CURVE ( 'NONE', #138, #145, #209, .T. ) ;
#76 = CALENDAR_DATE ( 2020, 19, 10 ) ;
#77 = EDGE_LOOP ( 'NONE', ( #129, #114, #186, #39 ) ) ;
#78 = PLANE ( 'NONE',  #30 ) ;
#79 = PRODUCT_DEFINITION_FORMATION_WITH_SPECIFIED_SOURCE ( 'ANY', '', #214, .NOT_KNOWN. ) ;
#80 = CARTESIAN_POINT ( 'NONE',  ( 0.0000000000000000000, 0.0000000000000000000, 3.000000000000000000 ) ) ;
#81 = CARTESIAN_POINT ( 'NONE',  ( 12.50000000000000533, -12.50000000000000178, 3.000000000000000000 ) ) ;
#82 = CALENDAR_DATE ( 2020, 19, 10 ) ;
#83 = ORIENTED_EDGE ( 'NONE', *, *, #91, .F. ) ;
#84 = PLANE ( 'NONE',  #17 ) ;
#85 = DIRECTION ( 'NONE',  ( 1.000000000000000000, 1.387778780781445676E-16, -0.0000000000000000000 ) ) ;
#86 = APPROVAL_ROLE ( '' ) ;
#87 = DATE_AND_TIME ( #162, #92 ) ;
#88 = PERSON_AND_ORGANIZATION_ROLE ( 'creator' ) ;
#89 = PERSON_AND_ORGANIZATION ( #57, #38 ) ;
#90 = FACE_OUTER_BOUND ( 'NONE', #204, .T. ) ;
#91 = EDGE_CURVE ( 'NONE', #109, #189, #35, .T. ) ;
#92 = LOCAL_TIME ( 11, 43, 53.00000000000000000, #69 ) ;
#93 = ORIENTED_EDGE ( 'NONE', *, *, #152, .F. ) ;
#94 = DATE_AND_TIME ( #203, #158 ) ;
#95 = LINE ( 'NONE', #225, #2 ) ;
#96 = CARTESIAN_POINT ( 'NONE',  ( 12.50000000000000533, 12.49999999999999822, 3.000000000000000000 ) ) ;
#97 = ADVANCED_FACE ( 'NONE', ( #176 ), #84, .F. ) ;
#98 = AXIS2_PLACEMENT_3D ( 'NONE', #202, #11, #107 ) ;
#99 = LINE ( 'NONE', #183, #73 ) ;
#100 = APPROVAL_DATE_TIME ( #94, #154 ) ;
#101 = CC_DESIGN_APPROVAL ( #205, ( #130 ) ) ;
#102 = PRODUCT_DEFINITION ( 'UNKNOWN', '', #79, #131 ) ;
#103 = DIRECTION ( 'NONE',  ( 1.000000000000000000, 0.0000000000000000000, -0.0000000000000000000 ) ) ;
#104 = ORIENTED_EDGE ( 'NONE', *, *, #75, .F. ) ;
#105 = PLANE ( 'NONE',  #46 ) ;
#106 = COORDINATED_UNIVERSAL_TIME_OFFSET ( 5, 0, .BEHIND. ) ;
#107 = DIRECTION ( 'NONE',  ( 0.0000000000000000000, 0.0000000000000000000, 1.000000000000000000 ) ) ;
#108 = DIRECTION ( 'NONE',  ( -0.0000000000000000000, -1.000000000000000000, -0.0000000000000000000 ) ) ;
#109 = VERTEX_POINT ( 'NONE', #45 ) ;
#110 = APPROVAL ( #198, 'UNSPECIFIED' ) ;
#111 = MANIFOLD_SOLID_BREP ( 'Boss-Extrude1', #182 ) ;
#112 = LOCAL_TIME ( 11, 43, 53.00000000000000000, #134 ) ;
#113 = CC_DESIGN_PERSON_AND_ORGANIZATION_ASSIGNMENT ( #140, #229, ( #102 ) ) ;
#114 = ORIENTED_EDGE ( 'NONE', *, *, #132, .F. ) ;
#115 = ADVANCED_BREP_SHAPE_REPRESENTATION ( 'Web Model 37128MX_15779', ( #111, #139 ), #184 ) ;
#116 = FACE_OUTER_BOUND ( 'NONE', #174, .T. ) ;
#117 = DIRECTION ( 'NONE',  ( 1.000000000000000000, 0.0000000000000000000, 0.0000000000000000000 ) ) ;
#118 = PERSON_AND_ORGANIZATION ( #57, #38 ) ;
#119 = DIRECTION ( 'NONE',  ( 1.000000000000000000, 0.0000000000000000000, 0.0000000000000000000 ) ) ;
#120 = EDGE_LOOP ( 'NONE', ( #235, #33, #223, #236 ) ) ;
#121 = APPROVAL_PERSON_ORGANIZATION ( #71, #205, #148 ) ;
#122 = DIRECTION ( 'NONE',  ( -1.000000000000000000, -1.387778780781445676E-16, 0.0000000000000000000 ) ) ;
#123 = CC_DESIGN_DATE_AND_TIME_ASSIGNMENT ( #218, #159, ( #130 ) ) ;
#124 = APPLICATION_PROTOCOL_DEFINITION ( 'international standard', 'config_control_design', 1994, #62 ) ;
#125 = CARTESIAN_POINT ( 'NONE',  ( 12.50000000000000533, 12.49999999999999822, -3.000000000000000000 ) ) ;
#126 = ORIENTED_EDGE ( 'NONE', *, *, #58, .T. ) ;
#127 = CARTESIAN_POINT ( 'NONE',  ( 12.50000000000000533, -12.50000000000000178, -3.000000000000000000 ) ) ;
#128 = UNCERTAINTY_MEASURE_WITH_UNIT (LENGTH_MEASURE( 1.000000000000000082E-05 ), #231, 'distance_accuracy_value', 'NONE');
#129 = ORIENTED_EDGE ( 'NONE', *, *, #75, .T. ) ;
#130 = SECURITY_CLASSIFICATION ( '', '', #147 ) ;
#131 = DESIGN_CONTEXT ( 'detailed design', #167, 'design' ) ;
#132 = EDGE_CURVE ( 'NONE', #28, #145, #51, .T. ) ;
#133 = VERTEX_POINT ( 'NONE', #165 ) ;
#134 = COORDINATED_UNIVERSAL_TIME_OFFSET ( 5, 0, .BEHIND. ) ;
#135 = ORIENTED_EDGE ( 'NONE', *, *, #132, .T. ) ;
#136 = ORIENTED_EDGE ( 'NONE', *, *, #237, .T. ) ;
#137 = PERSON_AND_ORGANIZATION ( #57, #38 ) ;
#138 = VERTEX_POINT ( 'NONE', #61 ) ;
#139 = AXIS2_PLACEMENT_3D ( 'NONE', #44, #211, #119 ) ;
#140 = PERSON_AND_ORGANIZATION ( #57, #38 ) ;
#141 = MECHANICAL_CONTEXT ( 'NONE', #62, 'mechanical' ) ;
#142 = DIRECTION ( 'NONE',  ( -0.0000000000000000000, -0.0000000000000000000, -1.000000000000000000 ) ) ;
#143 = PRODUCT_RELATED_PRODUCT_CATEGORY ( 'detail', '', ( #214 ) ) ;
#144 = DATE_TIME_ROLE ( 'creation_date' ) ;
#145 = VERTEX_POINT ( 'NONE', #125 ) ;
#146 = PLANE ( 'NONE',  #98 ) ;
#147 = SECURITY_CLASSIFICATION_LEVEL ( 'unclassified' ) ;
#148 = APPROVAL_ROLE ( '' ) ;
#149 = VERTEX_POINT ( 'NONE', #10 ) ;
#150 = CC_DESIGN_APPROVAL ( #110, ( #102 ) ) ;
#151 = ORIENTED_EDGE ( 'NONE', *, *, #234, .F. ) ;
#152 = EDGE_CURVE ( 'NONE', #133, #189, #95, .T. ) ;
#153 = PLANE ( 'NONE',  #224 ) ;
#154 = APPROVAL ( #27, 'UNSPECIFIED' ) ;
#155 = LINE ( 'NONE', #41, #50 ) ;
#156 = ADVANCED_FACE ( 'NONE', ( #192 ), #105, .F. ) ;
#157 = APPROVAL_DATE_TIME ( #87, #205 ) ;
#158 = LOCAL_TIME ( 11, 43, 53.00000000000000000, #178 ) ;
#159 = DATE_TIME_ROLE ( 'classification_date' ) ;
#160 = CARTESIAN_POINT ( 'NONE',  ( -12.49999999999999467, 12.49999999999999467, 3.000000000000000000 ) ) ;
#161 = DIRECTION ( 'NONE',  ( -0.0000000000000000000, -1.000000000000000000, -0.0000000000000000000 ) ) ;
#162 = CALENDAR_DATE ( 2020, 19, 10 ) ;
#163 = CARTESIAN_POINT ( 'NONE',  ( -12.49999999999999467, -12.50000000000000533, 3.000000000000000000 ) ) ;
#164 = CARTESIAN_POINT ( 'NONE',  ( 12.50000000000000533, 12.49999999999999822, 3.000000000000000000 ) ) ;
#165 = CARTESIAN_POINT ( 'NONE',  ( -12.49999999999999467, 12.49999999999999467, -3.000000000000000000 ) ) ;
#166 = DIRECTION ( 'NONE',  ( 0.0000000000000000000, 1.000000000000000000, 0.0000000000000000000 ) ) ;
#167 = APPLICATION_CONTEXT ( 'configuration controlled 3d designs of mechanical parts and assemblies' ) ;
#168 = FACE_OUTER_BOUND ( 'NONE', #177, .T. ) ;
#169 = EDGE_CURVE ( 'NONE', #145, #133, #196, .T. ) ;
#170 = VECTOR ( 'NONE', #199, 1000.000000000000000 ) ;
#171 = CALENDAR_DATE ( 2020, 19, 10 ) ;
#172 = DATE_AND_TIME ( #76, #14 ) ;
#173 = EDGE_CURVE ( 'NONE', #74, #109, #99, .T. ) ;
#174 = EDGE_LOOP ( 'NONE', ( #215, #83, #191, #136 ) ) ;
#175 = CC_DESIGN_SECURITY_CLASSIFICATION ( #130, ( #79 ) ) ;
#176 = FACE_OUTER_BOUND ( 'NONE', #120, .T. ) ;
#177 = EDGE_LOOP ( 'NONE', ( #93, #59, #104, #18 ) ) ;
#178 = COORDINATED_UNIVERSAL_TIME_OFFSET ( 5, 0, .BEHIND. ) ;
#179 = ADVANCED_FACE ( 'NONE', ( #1 ), #146, .F. ) ;
#180 = DIRECTION ( 'NONE',  ( -0.0000000000000000000, -0.0000000000000000000, -1.000000000000000000 ) ) ;
#181 = APPROVAL_DATE_TIME ( #221, #110 ) ;
#182 = CLOSED_SHELL ( 'NONE', ( #37, #97, #179, #156, #52, #222 ) ) ;
#183 = CARTESIAN_POINT ( 'NONE',  ( -12.49999999999999467, -12.50000000000000533, 3.000000000000000000 ) ) ;
#184 =( GEOMETRIC_REPRESENTATION_CONTEXT ( 3 ) GLOBAL_UNCERTAINTY_ASSIGNED_CONTEXT ( ( #128 ) ) GLOBAL_UNIT_ASSIGNED_CONTEXT ( ( #231, #212, #7 ) ) REPRESENTATION_CONTEXT ( 'NONE', 'WORKASPACE' ) );
#185 = DIRECTION ( 'NONE',  ( -0.0000000000000000000, -0.0000000000000000000, -1.000000000000000000 ) ) ;
#186 = ORIENTED_EDGE ( 'NONE', *, *, #219, .F. ) ;
#187 = PERSON_AND_ORGANIZATION ( #57, #38 ) ;
#188 = SHAPE_DEFINITION_REPRESENTATION ( #220, #115 ) ;
#189 = VERTEX_POINT ( 'NONE', #195 ) ;
#190 = ORIENTED_EDGE ( 'NONE', *, *, #219, .T. ) ;
#191 = ORIENTED_EDGE ( 'NONE', *, *, #173, .F. ) ;
#192 = FACE_OUTER_BOUND ( 'NONE', #36, .T. ) ;
#193 = VECTOR ( 'NONE', #122, 1000.000000000000000 ) ;
#194 = PLANE ( 'NONE',  #19 ) ;
#195 = CARTESIAN_POINT ( 'NONE',  ( -12.49999999999999467, -12.50000000000000533, -3.000000000000000000 ) ) ;
#196 = LINE ( 'NONE', #66, #43 ) ;
#197 = APPROVAL_PERSON_ORGANIZATION ( #3, #154, #42 ) ;
#198 = APPROVAL_STATUS ( 'not_yet_approved' ) ;
#199 = DIRECTION ( 'NONE',  ( 0.0000000000000000000, 1.000000000000000000, 0.0000000000000000000 ) ) ;
#200 = APPLICATION_PROTOCOL_DEFINITION ( 'international standard', 'config_control_design', 1994, #167 ) ;
#201 = DIRECTION ( 'NONE',  ( -1.387778780781445429E-16, 1.000000000000000000, 0.0000000000000000000 ) ) ;
#202 = CARTESIAN_POINT ( 'NONE',  ( 12.50000000000000533, -12.50000000000000178, 3.000000000000000000 ) ) ;
#203 = CALENDAR_DATE ( 2020, 19, 10 ) ;
#204 = EDGE_LOOP ( 'NONE', ( #70, #126, #190, #16 ) ) ;
#205 = APPROVAL ( #23, 'UNSPECIFIED' ) ;
#206 = DIRECTION ( 'NONE',  ( 0.0000000000000000000, -0.0000000000000000000, 1.000000000000000000 ) ) ;
#207 = EDGE_CURVE ( 'NONE', #189, #138, #65, .T. ) ;
#208 = CARTESIAN_POINT ( 'NONE',  ( 12.50000000000000533, -12.50000000000000178, 3.000000000000000000 ) ) ;
#209 = LINE ( 'NONE', #22, #170 ) ;
#210 = DIRECTION ( 'NONE',  ( 0.0000000000000000000, -0.0000000000000000000, 1.000000000000000000 ) ) ;
#211 = DIRECTION ( 'NONE',  ( 0.0000000000000000000, 0.0000000000000000000, 1.000000000000000000 ) ) ;
#212 =( NAMED_UNIT ( * ) PLANE_ANGLE_UNIT ( ) SI_UNIT ( $, .RADIAN. ) );
#213 = PERSON_AND_ORGANIZATION_ROLE ( 'design_supplier' ) ;
#214 = PRODUCT ( 'Web Model 37128MX_15779', 'Web Model 37128MX_15779', '', ( #141 ) ) ;
#215 = ORIENTED_EDGE ( 'NONE', *, *, #152, .T. ) ;
#216 = CARTESIAN_POINT ( 'NONE',  ( 0.0000000000000000000, 0.0000000000000000000, -3.000000000000000000 ) ) ;
#217 = VECTOR ( 'NONE', #180, 1000.000000000000000 ) ;
#218 = DATE_AND_TIME ( #171, #12 ) ;
#219 = EDGE_CURVE ( 'NONE', #149, #28, #155, .T. ) ;
#220 = PRODUCT_DEFINITION_SHAPE ( 'NONE', 'NONE',  #102 ) ;
#221 = DATE_AND_TIME ( #82, #112 ) ;
#222 = ADVANCED_FACE ( 'NONE', ( #168 ), #194, .F. ) ;
#223 = ORIENTED_EDGE ( 'NONE', *, *, #58, .F. ) ;
#224 = AXIS2_PLACEMENT_3D ( 'NONE', #80, #206, #55 ) ;
#225 = CARTESIAN_POINT ( 'NONE',  ( -12.49999999999999467, -12.50000000000000533, -3.000000000000000000 ) ) ;
#226 = CC_DESIGN_PERSON_AND_ORGANIZATION_ASSIGNMENT ( #118, #21, ( #130 ) ) ;
#227 = LINE ( 'NONE', #9, #15 ) ;
#228 = LINE ( 'NONE', #81, #217 ) ;
#229 = PERSON_AND_ORGANIZATION_ROLE ( 'creator' ) ;
#230 = DIRECTION ( 'NONE',  ( -1.000000000000000000, -1.387778780781445429E-16, 0.0000000000000000000 ) ) ;
#231 =( LENGTH_UNIT ( ) NAMED_UNIT ( * ) SI_UNIT ( .MILLI., .METRE. ) );
#232 = ORIENTED_EDGE ( 'NONE', *, *, #237, .F. ) ;
#233 = DIRECTION ( 'NONE',  ( -1.000000000000000000, -1.387778780781445676E-16, 0.0000000000000000000 ) ) ;
#234 = EDGE_CURVE ( 'NONE', #28, #74, #5, .T. ) ;
#235 = ORIENTED_EDGE ( 'NONE', *, *, #207, .T. ) ;
#236 = ORIENTED_EDGE ( 'NONE', *, *, #91, .T. ) ;
#237 = EDGE_CURVE ( 'NONE', #74, #133, #227, .T. ) ;
ENDSEC;
END-ISO-10303-21;
