ISO-10303-21;
HEADER;
FILE_DESCRIPTION (( 'STEP AP203' ),
    '1' );
FILE_NAME ('Web Model 68157_21002.step',
    '2022-03-15T19:23:17',
    ( '' ),
    ( '' ),
    'SwSTEP 2.0',
    'SolidWorks 2021',
    '' );
FILE_SCHEMA (( 'CONFIG_CONTROL_DESIGN' ));
ENDSEC;

DATA;
#1 =( GEOMETRIC_REPRESENTATION_CONTEXT ( 3 ) GLOBAL_UNCERTAINTY_ASSIGNED_CONTEXT ( ( #167 ) ) GLOBAL_UNIT_ASSIGNED_CONTEXT ( ( #55, #119, #172 ) ) REPRESENTATION_CONTEXT ( 'NONE', 'WORKASPACE' ) );
#2 = CC_DESIGN_APPROVAL ( #29, ( #73 ) ) ;
#3 = ORIENTED_EDGE ( 'NONE', *, *, #92, .F. ) ;
#4 = COORDINATED_UNIVERSAL_TIME_OFFSET ( 5, 0, .BEHIND. ) ;
#5 = DIRECTION ( 'NONE',  ( 0.000000000000000000, 0.000000000000000000, 1.000000000000000000 ) ) ;
#6 = PERSON_AND_ORGANIZATION ( #160, #141 ) ;
#7 = CARTESIAN_POINT ( 'NONE',  ( 6.349999999999999645, 7.776507174585692163E-16, 2.000000000000000000 ) ) ;
#8 = APPROVAL_PERSON_ORGANIZATION ( #127, #59, #154 ) ;
#9 = CARTESIAN_POINT ( 'NONE',  ( 0.000000000000000000, 0.000000000000000000, 0.000000000000000000 ) ) ;
#10 = DATE_AND_TIME ( #114, #105 ) ;
#11 = DIRECTION ( 'NONE',  ( 1.000000000000000000, 0.000000000000000000, 0.000000000000000000 ) ) ;
#12 = DIRECTION ( 'NONE',  ( 0.000000000000000000, 0.000000000000000000, 1.000000000000000000 ) ) ;
#13 = CIRCLE ( 'NONE', #81, 6.349999999999999645 ) ;
#14 = FACE_OUTER_BOUND ( 'NONE', #168, .T. ) ;
#15 = APPLICATION_CONTEXT ( 'configuration controlled 3d designs of mechanical parts and assemblies' ) ;
#16 = VECTOR ( 'NONE', #117, 1000.000000000000000 ) ;
#17 = VERTEX_POINT ( 'NONE', #98 ) ;
#18 = EDGE_CURVE ( 'NONE', #30, #155, #124, .T. ) ;
#19 = CC_DESIGN_PERSON_AND_ORGANIZATION_ASSIGNMENT ( #151, #158, ( #162 ) ) ;
#20 = PERSON_AND_ORGANIZATION ( #160, #141 ) ;
#21 = EDGE_LOOP ( 'NONE', ( #33, #130, #82, #116 ) ) ;
#22 = APPROVAL_DATE_TIME ( #143, #59 ) ;
#23 = APPROVAL_ROLE ( '' ) ;
#24 = CARTESIAN_POINT ( 'NONE',  ( 0.000000000000000000, 0.000000000000000000, 2.000000000000000000 ) ) ;
#25 = PRODUCT_DEFINITION_FORMATION_WITH_SPECIFIED_SOURCE ( 'ANY', '', #162, .NOT_KNOWN. ) ;
#26 = DATE_AND_TIME ( #89, #32 ) ;
#27 = PRODUCT_DEFINITION_SHAPE ( 'NONE', 'NONE',  #43 ) ;
#28 = CC_DESIGN_APPROVAL ( #120, ( #43 ) ) ;
#29 = APPROVAL ( #85, 'UNSPECIFIED' ) ;
#30 = VERTEX_POINT ( 'NONE', #7 ) ;
#31 = PERSON_AND_ORGANIZATION_ROLE ( 'design_supplier' ) ;
#32 = LOCAL_TIME ( 15, 23, 17.00000000000000000, #159 ) ;
#33 = ORIENTED_EDGE ( 'NONE', *, *, #18, .F. ) ;
#34 = CALENDAR_DATE ( 2022, 15, 3 ) ;
#35 = DIRECTION ( 'NONE',  ( 1.000000000000000000, 0.000000000000000000, -0.000000000000000000 ) ) ;
#36 = DIRECTION ( 'NONE',  ( 0.000000000000000000, 0.000000000000000000, 1.000000000000000000 ) ) ;
#37 = APPROVAL_DATE_TIME ( #10, #29 ) ;
#38 = CARTESIAN_POINT ( 'NONE',  ( 0.000000000000000000, 0.000000000000000000, 0.000000000000000000 ) ) ;
#39 = ADVANCED_FACE ( 'NONE', ( #140 ), #146, .F. ) ;
#40 = CALENDAR_DATE ( 2022, 15, 3 ) ;
#41 = CC_DESIGN_SECURITY_CLASSIFICATION ( #73, ( #25 ) ) ;
#42 = ORIENTED_EDGE ( 'NONE', *, *, #139, .F. ) ;
#43 = PRODUCT_DEFINITION ( 'UNKNOWN', '', #25, #47 ) ;
#44 = ORIENTED_EDGE ( 'NONE', *, *, #113, .F. ) ;
#45 = COORDINATED_UNIVERSAL_TIME_OFFSET ( 5, 0, .BEHIND. ) ;
#46 = ORIENTED_EDGE ( 'NONE', *, *, #111, .T. ) ;
#47 = DESIGN_CONTEXT ( 'detailed design', #15, 'design' ) ;
#48 = PERSON_AND_ORGANIZATION ( #160, #141 ) ;
#49 = DIRECTION ( 'NONE',  ( 0.000000000000000000, 0.000000000000000000, 1.000000000000000000 ) ) ;
#50 = ADVANCED_FACE ( 'NONE', ( #14 ), #112, .T. ) ;
#51 = MECHANICAL_CONTEXT ( 'NONE', #171, 'mechanical' ) ;
#52 = CYLINDRICAL_SURFACE ( 'NONE', #60, 6.349999999999999645 ) ;
#53 = DIRECTION ( 'NONE',  ( -1.000000000000000000, 0.000000000000000000, 0.000000000000000000 ) ) ;
#54 = DIRECTION ( 'NONE',  ( 0.000000000000000000, 0.000000000000000000, 1.000000000000000000 ) ) ;
#55 =( LENGTH_UNIT ( ) NAMED_UNIT ( * ) SI_UNIT ( .MILLI., .METRE. ) );
#56 = CC_DESIGN_APPROVAL ( #59, ( #25 ) ) ;
#57 = MANIFOLD_SOLID_BREP ( 'Boss-Extrude1', #108 ) ;
#58 = CC_DESIGN_PERSON_AND_ORGANIZATION_ASSIGNMENT ( #93, #110, ( #43 ) ) ;
#59 = APPROVAL ( #103, 'UNSPECIFIED' ) ;
#60 = AXIS2_PLACEMENT_3D ( 'NONE', #24, #107, #170 ) ;
#61 = DATE_TIME_ROLE ( 'classification_date' ) ;
#62 = PERSON_AND_ORGANIZATION_ROLE ( 'creator' ) ;
#63 = CIRCLE ( 'NONE', #90, 6.349999999999999645 ) ;
#64 = CARTESIAN_POINT ( 'NONE',  ( 6.349999999999999645, 7.776507174585692163E-16, 2.000000000000000000 ) ) ;
#65 = SHAPE_DEFINITION_REPRESENTATION ( #27, #126 ) ;
#66 = CARTESIAN_POINT ( 'NONE',  ( 0.000000000000000000, 0.000000000000000000, 2.000000000000000000 ) ) ;
#67 = DIRECTION ( 'NONE',  ( -0.000000000000000000, -0.000000000000000000, -1.000000000000000000 ) ) ;
#68 = DATE_TIME_ROLE ( 'creation_date' ) ;
#69 = ORIENTED_EDGE ( 'NONE', *, *, #91, .T. ) ;
#70 = COORDINATED_UNIVERSAL_TIME_OFFSET ( 5, 0, .BEHIND. ) ;
#71 = DIRECTION ( 'NONE',  ( 1.000000000000000000, 0.000000000000000000, 0.000000000000000000 ) ) ;
#72 = PERSON_AND_ORGANIZATION_ROLE ( 'classification_officer' ) ;
#73 = SECURITY_CLASSIFICATION ( '', '', #145 ) ;
#74 = CYLINDRICAL_SURFACE ( 'NONE', #147, 6.349999999999999645 ) ;
#75 = DIRECTION ( 'NONE',  ( 1.000000000000000000, 0.000000000000000000, 0.000000000000000000 ) ) ;
#76 = DIRECTION ( 'NONE',  ( 1.000000000000000000, 0.000000000000000000, -0.000000000000000000 ) ) ;
#77 = AXIS2_PLACEMENT_3D ( 'NONE', #166, #49, #35 ) ;
#78 = APPROVAL_DATE_TIME ( #26, #120 ) ;
#79 = FACE_OUTER_BOUND ( 'NONE', #101, .T. ) ;
#80 = CIRCLE ( 'NONE', #87, 6.349999999999999645 ) ;
#81 = AXIS2_PLACEMENT_3D ( 'NONE', #122, #12, #152 ) ;
#82 = ORIENTED_EDGE ( 'NONE', *, *, #139, .T. ) ;
#83 = CARTESIAN_POINT ( 'NONE',  ( 0.000000000000000000, 0.000000000000000000, 2.000000000000000000 ) ) ;
#84 = CC_DESIGN_DATE_AND_TIME_ASSIGNMENT ( #115, #61, ( #73 ) ) ;
#85 = APPROVAL_STATUS ( 'not_yet_approved' ) ;
#86 = APPLICATION_PROTOCOL_DEFINITION ( 'international standard', 'config_control_design', 1994, #15 ) ;
#87 = AXIS2_PLACEMENT_3D ( 'NONE', #9, #136, #137 ) ;
#88 = CARTESIAN_POINT ( 'NONE',  ( -6.349999999999999645, 0.000000000000000000, 2.000000000000000000 ) ) ;
#89 = CALENDAR_DATE ( 2022, 15, 3 ) ;
#90 = AXIS2_PLACEMENT_3D ( 'NONE', #134, #104, #11 ) ;
#91 = EDGE_CURVE ( 'NONE', #155, #30, #13, .T. ) ;
#92 = EDGE_CURVE ( 'NONE', #17, #125, #80, .T. ) ;
#93 = PERSON_AND_ORGANIZATION ( #160, #141 ) ;
#94 = VECTOR ( 'NONE', #173, 1000.000000000000000 ) ;
#95 = APPROVAL_PERSON_ORGANIZATION ( #48, #29, #165 ) ;
#96 = ORIENTED_EDGE ( 'NONE', *, *, #92, .T. ) ;
#97 = ORIENTED_EDGE ( 'NONE', *, *, #91, .F. ) ;
#98 = CARTESIAN_POINT ( 'NONE',  ( -6.349999999999999645, 0.000000000000000000, 0.000000000000000000 ) ) ;
#99 = LOCAL_TIME ( 15, 23, 17.00000000000000000, #161 ) ;
#100 = APPROVAL_PERSON_ORGANIZATION ( #106, #120, #23 ) ;
#101 = EDGE_LOOP ( 'NONE', ( #44, #97, #46, #96 ) ) ;
#102 = CC_DESIGN_PERSON_AND_ORGANIZATION_ASSIGNMENT ( #142, #72, ( #73 ) ) ;
#103 = APPROVAL_STATUS ( 'not_yet_approved' ) ;
#104 = DIRECTION ( 'NONE',  ( 0.000000000000000000, 0.000000000000000000, 1.000000000000000000 ) ) ;
#105 = LOCAL_TIME ( 15, 23, 17.00000000000000000, #4 ) ;
#106 = PERSON_AND_ORGANIZATION ( #160, #141 ) ;
#107 = DIRECTION ( 'NONE',  ( -0.000000000000000000, -0.000000000000000000, -1.000000000000000000 ) ) ;
#108 = CLOSED_SHELL ( 'NONE', ( #135, #164, #50, #39 ) ) ;
#109 = CC_DESIGN_DATE_AND_TIME_ASSIGNMENT ( #175, #68, ( #43 ) ) ;
#110 = PERSON_AND_ORGANIZATION_ROLE ( 'creator' ) ;
#111 = EDGE_CURVE ( 'NONE', #155, #17, #121, .T. ) ;
#112 = PLANE ( 'NONE',  #150 ) ;
#113 = EDGE_CURVE ( 'NONE', #30, #125, #149, .T. ) ;
#114 = CALENDAR_DATE ( 2022, 15, 3 ) ;
#115 = DATE_AND_TIME ( #34, #174 ) ;
#116 = ORIENTED_EDGE ( 'NONE', *, *, #111, .F. ) ;
#117 = DIRECTION ( 'NONE',  ( -0.000000000000000000, -0.000000000000000000, -1.000000000000000000 ) ) ;
#118 = AXIS2_PLACEMENT_3D ( 'NONE', #38, #54, #75 ) ;
#119 =( NAMED_UNIT ( * ) PLANE_ANGLE_UNIT ( ) SI_UNIT ( $, .RADIAN. ) );
#120 = APPROVAL ( #148, 'UNSPECIFIED' ) ;
#121 = LINE ( 'NONE', #88, #94 ) ;
#122 = CARTESIAN_POINT ( 'NONE',  ( 0.000000000000000000, 0.000000000000000000, 2.000000000000000000 ) ) ;
#123 = AXIS2_PLACEMENT_3D ( 'NONE', #83, #5, #71 ) ;
#124 = CIRCLE ( 'NONE', #123, 6.349999999999999645 ) ;
#125 = VERTEX_POINT ( 'NONE', #132 ) ;
#126 = ADVANCED_BREP_SHAPE_REPRESENTATION ( 'Web Model 68157_21002', ( #57, #118 ), #1 ) ;
#127 = PERSON_AND_ORGANIZATION ( #160, #141 ) ;
#128 = EDGE_LOOP ( 'NONE', ( #3, #42 ) ) ;
#129 = CALENDAR_DATE ( 2022, 15, 3 ) ;
#130 = ORIENTED_EDGE ( 'NONE', *, *, #113, .T. ) ;
#131 = LOCAL_TIME ( 15, 23, 17.00000000000000000, #45 ) ;
#132 = CARTESIAN_POINT ( 'NONE',  ( 6.349999999999999645, 7.776507174585692163E-16, 0.000000000000000000 ) ) ;
#133 = APPLICATION_PROTOCOL_DEFINITION ( 'international standard', 'config_control_design', 1994, #171 ) ;
#134 = CARTESIAN_POINT ( 'NONE',  ( 0.000000000000000000, 0.000000000000000000, 0.000000000000000000 ) ) ;
#135 = ADVANCED_FACE ( 'NONE', ( #169 ), #52, .T. ) ;
#136 = DIRECTION ( 'NONE',  ( 0.000000000000000000, 0.000000000000000000, 1.000000000000000000 ) ) ;
#137 = DIRECTION ( 'NONE',  ( 1.000000000000000000, 0.000000000000000000, 0.000000000000000000 ) ) ;
#138 = CC_DESIGN_PERSON_AND_ORGANIZATION_ASSIGNMENT ( #6, #62, ( #25 ) ) ;
#139 = EDGE_CURVE ( 'NONE', #125, #17, #63, .T. ) ;
#140 = FACE_OUTER_BOUND ( 'NONE', #128, .T. ) ;
#141 = ORGANIZATION ( 'UNSPECIFIED', 'UNSPECIFIED', '' ) ;
#142 = PERSON_AND_ORGANIZATION ( #160, #141 ) ;
#143 = DATE_AND_TIME ( #129, #131 ) ;
#144 = ORIENTED_EDGE ( 'NONE', *, *, #18, .T. ) ;
#145 = SECURITY_CLASSIFICATION_LEVEL ( 'unclassified' ) ;
#146 = PLANE ( 'NONE',  #77 ) ;
#147 = AXIS2_PLACEMENT_3D ( 'NONE', #66, #67, #53 ) ;
#148 = APPROVAL_STATUS ( 'not_yet_approved' ) ;
#149 = LINE ( 'NONE', #64, #16 ) ;
#150 = AXIS2_PLACEMENT_3D ( 'NONE', #163, #36, #76 ) ;
#151 = PERSON_AND_ORGANIZATION ( #160, #141 ) ;
#152 = DIRECTION ( 'NONE',  ( 1.000000000000000000, 0.000000000000000000, 0.000000000000000000 ) ) ;
#153 = PRODUCT_RELATED_PRODUCT_CATEGORY ( 'detail', '', ( #162 ) ) ;
#154 = APPROVAL_ROLE ( '' ) ;
#155 = VERTEX_POINT ( 'NONE', #157 ) ;
#156 = CC_DESIGN_PERSON_AND_ORGANIZATION_ASSIGNMENT ( #20, #31, ( #25 ) ) ;
#157 = CARTESIAN_POINT ( 'NONE',  ( -6.349999999999999645, 0.000000000000000000, 2.000000000000000000 ) ) ;
#158 = PERSON_AND_ORGANIZATION_ROLE ( 'design_owner' ) ;
#159 = COORDINATED_UNIVERSAL_TIME_OFFSET ( 5, 0, .BEHIND. ) ;
#160 = PERSON ( 'UNSPECIFIED', 'UNSPECIFIED', 'UNSPECIFIED', ('UNSPECIFIED'), ('UNSPECIFIED'), ('UNSPECIFIED') ) ;
#161 = COORDINATED_UNIVERSAL_TIME_OFFSET ( 5, 0, .BEHIND. ) ;
#162 = PRODUCT ( 'Web Model 68157_21002', 'Web Model 68157_21002', '', ( #51 ) ) ;
#163 = CARTESIAN_POINT ( 'NONE',  ( 0.000000000000000000, 0.000000000000000000, 2.000000000000000000 ) ) ;
#164 = ADVANCED_FACE ( 'NONE', ( #79 ), #74, .T. ) ;
#165 = APPROVAL_ROLE ( '' ) ;
#166 = CARTESIAN_POINT ( 'NONE',  ( 0.000000000000000000, 0.000000000000000000, 0.000000000000000000 ) ) ;
#167 = UNCERTAINTY_MEASURE_WITH_UNIT (LENGTH_MEASURE( 1.000000000000000082E-05 ), #55, 'distance_accuracy_value', 'NONE');
#168 = EDGE_LOOP ( 'NONE', ( #69, #144 ) ) ;
#169 = FACE_OUTER_BOUND ( 'NONE', #21, .T. ) ;
#170 = DIRECTION ( 'NONE',  ( -1.000000000000000000, 0.000000000000000000, 0.000000000000000000 ) ) ;
#171 = APPLICATION_CONTEXT ( 'configuration controlled 3d designs of mechanical parts and assemblies' ) ;
#172 =( NAMED_UNIT ( * ) SI_UNIT ( $, .STERADIAN. ) SOLID_ANGLE_UNIT ( ) );
#173 = DIRECTION ( 'NONE',  ( -0.000000000000000000, -0.000000000000000000, -1.000000000000000000 ) ) ;
#174 = LOCAL_TIME ( 15, 23, 17.00000000000000000, #70 ) ;
#175 = DATE_AND_TIME ( #40, #99 ) ;
ENDSEC;
END-ISO-10303-21;
