ISO-10303-21;
HEADER;
FILE_DESCRIPTION (( 'STEP AP203' ),
    '1' );
FILE_NAME ('Web Model 19837_19858.step',
    '2022-04-06T15:03:58',
    ( 'WC' ),
    ( 'Windows Central' ),
    'SwSTEP 2.0',
    'SolidWorks 2021',
    '' );
FILE_SCHEMA (( 'CONFIG_CONTROL_DESIGN' ));
ENDSEC;

DATA;
#1 = DATE_TIME_ROLE ( 'creation_date' ) ;
#2 = VECTOR ( 'NONE', #130, 1000.000000000000000 ) ;
#3 = APPROVAL_STATUS ( 'not_yet_approved' ) ;
#4 = SECURITY_CLASSIFICATION ( '', '', #94 ) ;
#5 = PRODUCT_DEFINITION ( 'UNKNOWN', '', #27, #147 ) ;
#6 = CARTESIAN_POINT ( 'NONE',  ( 0.000000000000000000, 0.000000000000000000, 3.000000000000000000 ) ) ;
#7 = PLANE ( 'NONE',  #166 ) ;
#8 = DIRECTION ( 'NONE',  ( -1.000000000000000000, 0.000000000000000000, 0.000000000000000000 ) ) ;
#9 = CARTESIAN_POINT ( 'NONE',  ( 0.000000000000000000, 0.000000000000000000, 3.000000000000000000 ) ) ;
#10 = PERSON_AND_ORGANIZATION ( #76, #20 ) ;
#11 = ORIENTED_EDGE ( 'NONE', *, *, #82, .F. ) ;
#12 = CC_DESIGN_APPROVAL ( #55, ( #5 ) ) ;
#13 = PERSON_AND_ORGANIZATION_ROLE ( 'design_owner' ) ;
#14 = DATE_TIME_ROLE ( 'classification_date' ) ;
#15 = ADVANCED_FACE ( 'NONE', ( #71 ), #7, .F. ) ;
#16 = DIRECTION ( 'NONE',  ( 1.000000000000000000, 0.000000000000000000, 0.000000000000000000 ) ) ;
#17 = CARTESIAN_POINT ( 'NONE',  ( 0.000000000000000000, 0.000000000000000000, 3.000000000000000000 ) ) ;
#18 = DIRECTION ( 'NONE',  ( 1.000000000000000000, 0.000000000000000000, -0.000000000000000000 ) ) ;
#19 = DIRECTION ( 'NONE',  ( 0.000000000000000000, 0.000000000000000000, 1.000000000000000000 ) ) ;
#20 = ORGANIZATION ( 'UNSPECIFIED', 'UNSPECIFIED', '' ) ;
#21 = CC_DESIGN_PERSON_AND_ORGANIZATION_ASSIGNMENT ( #107, #78, ( #5 ) ) ;
#22 = DIRECTION ( 'NONE',  ( 0.000000000000000000, 0.000000000000000000, 1.000000000000000000 ) ) ;
#23 = APPROVAL_STATUS ( 'not_yet_approved' ) ;
#24 = COORDINATED_UNIVERSAL_TIME_OFFSET ( 5, 0, .BEHIND. ) ;
#25 = CALENDAR_DATE ( 2022, 6, 4 ) ;
#26 = CLOSED_SHELL ( 'NONE', ( #138, #49, #90, #15 ) ) ;
#27 = PRODUCT_DEFINITION_FORMATION_WITH_SPECIFIED_SOURCE ( 'ANY', '', #38, .NOT_KNOWN. ) ;
#28 = CARTESIAN_POINT ( 'NONE',  ( 0.000000000000000000, 0.000000000000000000, 0.000000000000000000 ) ) ;
#29 = DIRECTION ( 'NONE',  ( -1.000000000000000000, 0.000000000000000000, 0.000000000000000000 ) ) ;
#30 = CC_DESIGN_DATE_AND_TIME_ASSIGNMENT ( #140, #1, ( #5 ) ) ;
#31 = DIRECTION ( 'NONE',  ( 1.000000000000000000, 0.000000000000000000, -0.000000000000000000 ) ) ;
#32 = FACE_OUTER_BOUND ( 'NONE', #121, .T. ) ;
#33 = LOCAL_TIME ( 11, 3, 58.00000000000000000, #24 ) ;
#34 = CC_DESIGN_PERSON_AND_ORGANIZATION_ASSIGNMENT ( #66, #13, ( #38 ) ) ;
#35 = VECTOR ( 'NONE', #154, 1000.000000000000000 ) ;
#36 = DATE_AND_TIME ( #109, #129 ) ;
#37 = PERSON_AND_ORGANIZATION_ROLE ( 'design_supplier' ) ;
#38 = PRODUCT ( 'Web Model 19837_19858', 'Web Model 19837_19858', '', ( #95 ) ) ;
#39 = PERSON_AND_ORGANIZATION ( #76, #20 ) ;
#40 = CC_DESIGN_DATE_AND_TIME_ASSIGNMENT ( #137, #14, ( #4 ) ) ;
#41 = PRODUCT_DEFINITION_SHAPE ( 'NONE', 'NONE',  #5 ) ;
#42 = LOCAL_TIME ( 11, 3, 58.00000000000000000, #175 ) ;
#43 = DIRECTION ( 'NONE',  ( 0.000000000000000000, 0.000000000000000000, 1.000000000000000000 ) ) ;
#44 = CARTESIAN_POINT ( 'NONE',  ( 0.000000000000000000, 0.000000000000000000, 3.000000000000000000 ) ) ;
#45 = VERTEX_POINT ( 'NONE', #47 ) ;
#46 = CC_DESIGN_PERSON_AND_ORGANIZATION_ASSIGNMENT ( #52, #108, ( #27 ) ) ;
#47 = CARTESIAN_POINT ( 'NONE',  ( 12.50000000000000000, 1.530808498934191521E-15, 0.000000000000000000 ) ) ;
#48 = DIRECTION ( 'NONE',  ( 0.000000000000000000, 0.000000000000000000, 1.000000000000000000 ) ) ;
#49 = ADVANCED_FACE ( 'NONE', ( #32 ), #85, .T. ) ;
#50 = APPROVAL_STATUS ( 'not_yet_approved' ) ;
#51 = DATE_AND_TIME ( #79, #164 ) ;
#52 = PERSON_AND_ORGANIZATION ( #76, #20 ) ;
#53 = AXIS2_PLACEMENT_3D ( 'NONE', #9, #19, #18 ) ;
#54 = PERSON_AND_ORGANIZATION ( #76, #20 ) ;
#55 = APPROVAL ( #23, 'UNSPECIFIED' ) ;
#56 = APPROVAL_ROLE ( '' ) ;
#57 = CC_DESIGN_APPROVAL ( #143, ( #27 ) ) ;
#58 = DIRECTION ( 'NONE',  ( 1.000000000000000000, 0.000000000000000000, 0.000000000000000000 ) ) ;
#59 = VERTEX_POINT ( 'NONE', #100 ) ;
#60 = DIRECTION ( 'NONE',  ( -0.000000000000000000, -0.000000000000000000, -1.000000000000000000 ) ) ;
#61 = DIRECTION ( 'NONE',  ( 0.000000000000000000, 0.000000000000000000, 1.000000000000000000 ) ) ;
#62 = UNCERTAINTY_MEASURE_WITH_UNIT (LENGTH_MEASURE( 1.000000000000000082E-05 ), #142, 'distance_accuracy_value', 'NONE');
#63 = COORDINATED_UNIVERSAL_TIME_OFFSET ( 5, 0, .BEHIND. ) ;
#64 = DIRECTION ( 'NONE',  ( 1.000000000000000000, 0.000000000000000000, 0.000000000000000000 ) ) ;
#65 = APPROVAL_PERSON_ORGANIZATION ( #54, #143, #160 ) ;
#66 = PERSON_AND_ORGANIZATION ( #76, #20 ) ;
#67 = PERSON_AND_ORGANIZATION ( #76, #20 ) ;
#68 = LINE ( 'NONE', #159, #35 ) ;
#69 = CC_DESIGN_PERSON_AND_ORGANIZATION_ASSIGNMENT ( #162, #37, ( #27 ) ) ;
#70 = FACE_OUTER_BOUND ( 'NONE', #119, .T. ) ;
#71 = FACE_OUTER_BOUND ( 'NONE', #158, .T. ) ;
#72 = AXIS2_PLACEMENT_3D ( 'NONE', #28, #169, #58 ) ;
#73 = ORIENTED_EDGE ( 'NONE', *, *, #97, .T. ) ;
#74 = AXIS2_PLACEMENT_3D ( 'NONE', #141, #170, #126 ) ;
#75 = APPROVAL_DATE_TIME ( #51, #139 ) ;
#76 = PERSON ( 'UNSPECIFIED', 'UNSPECIFIED', 'UNSPECIFIED', ('UNSPECIFIED'), ('UNSPECIFIED'), ('UNSPECIFIED') ) ;
#77 = ORIENTED_EDGE ( 'NONE', *, *, #131, .F. ) ;
#78 = PERSON_AND_ORGANIZATION_ROLE ( 'creator' ) ;
#79 = CALENDAR_DATE ( 2022, 6, 4 ) ;
#80 = CALENDAR_DATE ( 2022, 6, 4 ) ;
#81 = ORIENTED_EDGE ( 'NONE', *, *, #165, .F. ) ;
#82 = EDGE_CURVE ( 'NONE', #59, #149, #101, .T. ) ;
#83 = ORIENTED_EDGE ( 'NONE', *, *, #82, .T. ) ;
#84 = CIRCLE ( 'NONE', #102, 12.50000000000000000 ) ;
#85 = CYLINDRICAL_SURFACE ( 'NONE', #127, 12.50000000000000000 ) ;
#86 = APPROVAL_PERSON_ORGANIZATION ( #10, #55, #173 ) ;
#87 = MANIFOLD_SOLID_BREP ( 'Boss-Extrude1', #26 ) ;
#88 = VERTEX_POINT ( 'NONE', #113 ) ;
#89 = APPROVAL_DATE_TIME ( #36, #143 ) ;
#90 = ADVANCED_FACE ( 'NONE', ( #144 ), #98, .T. ) ;
#91 = PERSON_AND_ORGANIZATION_ROLE ( 'classification_officer' ) ;
#92 = SHAPE_DEFINITION_REPRESENTATION ( #41, #106 ) ;
#93 = APPLICATION_CONTEXT ( 'configuration controlled 3d designs of mechanical parts and assemblies' ) ;
#94 = SECURITY_CLASSIFICATION_LEVEL ( 'unclassified' ) ;
#95 = MECHANICAL_CONTEXT ( 'NONE', #156, 'mechanical' ) ;
#96 =( GEOMETRIC_REPRESENTATION_CONTEXT ( 3 ) GLOBAL_UNCERTAINTY_ASSIGNED_CONTEXT ( ( #62 ) ) GLOBAL_UNIT_ASSIGNED_CONTEXT ( ( #142, #150, #163 ) ) REPRESENTATION_CONTEXT ( 'NONE', 'WORKASPACE' ) );
#97 = EDGE_CURVE ( 'NONE', #59, #88, #99, .T. ) ;
#98 = PLANE ( 'NONE',  #53 ) ;
#99 = CIRCLE ( 'NONE', #112, 12.50000000000000000 ) ;
#100 = CARTESIAN_POINT ( 'NONE',  ( -12.50000000000000000, 0.000000000000000000, 3.000000000000000000 ) ) ;
#101 = LINE ( 'NONE', #145, #2 ) ;
#102 = AXIS2_PLACEMENT_3D ( 'NONE', #153, #48, #16 ) ;
#103 = ORIENTED_EDGE ( 'NONE', *, *, #146, .F. ) ;
#104 = CYLINDRICAL_SURFACE ( 'NONE', #114, 12.50000000000000000 ) ;
#105 = CC_DESIGN_APPROVAL ( #139, ( #4 ) ) ;
#106 = ADVANCED_BREP_SHAPE_REPRESENTATION ( 'Web Model 19837_19858', ( #87, #136 ), #96 ) ;
#107 = PERSON_AND_ORGANIZATION ( #76, #20 ) ;
#108 = PERSON_AND_ORGANIZATION_ROLE ( 'creator' ) ;
#109 = CALENDAR_DATE ( 2022, 6, 4 ) ;
#110 = APPLICATION_PROTOCOL_DEFINITION ( 'international standard', 'config_control_design', 1994, #156 ) ;
#111 = LOCAL_TIME ( 11, 3, 58.00000000000000000, #63 ) ;
#112 = AXIS2_PLACEMENT_3D ( 'NONE', #44, #61, #117 ) ;
#113 = CARTESIAN_POINT ( 'NONE',  ( 12.50000000000000000, 1.530808498934191521E-15, 3.000000000000000000 ) ) ;
#114 = AXIS2_PLACEMENT_3D ( 'NONE', #17, #128, #8 ) ;
#115 = CARTESIAN_POINT ( 'NONE',  ( -12.50000000000000000, 0.000000000000000000, 0.000000000000000000 ) ) ;
#116 = CIRCLE ( 'NONE', #74, 12.50000000000000000 ) ;
#117 = DIRECTION ( 'NONE',  ( 1.000000000000000000, 0.000000000000000000, 0.000000000000000000 ) ) ;
#118 = EDGE_CURVE ( 'NONE', #149, #45, #116, .T. ) ;
#119 = EDGE_LOOP ( 'NONE', ( #77, #157, #171, #11 ) ) ;
#120 = DATE_AND_TIME ( #122, #111 ) ;
#121 = EDGE_LOOP ( 'NONE', ( #103, #148, #83, #135 ) ) ;
#122 = CALENDAR_DATE ( 2022, 6, 4 ) ;
#123 = APPROVAL_DATE_TIME ( #120, #55 ) ;
#124 = CIRCLE ( 'NONE', #72, 12.50000000000000000 ) ;
#125 = CC_DESIGN_SECURITY_CLASSIFICATION ( #4, ( #27 ) ) ;
#126 = DIRECTION ( 'NONE',  ( 1.000000000000000000, 0.000000000000000000, 0.000000000000000000 ) ) ;
#127 = AXIS2_PLACEMENT_3D ( 'NONE', #6, #60, #29 ) ;
#128 = DIRECTION ( 'NONE',  ( -0.000000000000000000, -0.000000000000000000, -1.000000000000000000 ) ) ;
#129 = LOCAL_TIME ( 11, 3, 58.00000000000000000, #161 ) ;
#130 = DIRECTION ( 'NONE',  ( -0.000000000000000000, -0.000000000000000000, -1.000000000000000000 ) ) ;
#131 = EDGE_CURVE ( 'NONE', #88, #59, #84, .T. ) ;
#132 = EDGE_LOOP ( 'NONE', ( #73, #167 ) ) ;
#133 = APPLICATION_PROTOCOL_DEFINITION ( 'international standard', 'config_control_design', 1994, #93 ) ;
#134 = ORIENTED_EDGE ( 'NONE', *, *, #118, .F. ) ;
#135 = ORIENTED_EDGE ( 'NONE', *, *, #118, .T. ) ;
#136 = AXIS2_PLACEMENT_3D ( 'NONE', #151, #22, #64 ) ;
#137 = DATE_AND_TIME ( #80, #33 ) ;
#138 = ADVANCED_FACE ( 'NONE', ( #70 ), #104, .T. ) ;
#139 = APPROVAL ( #3, 'UNSPECIFIED' ) ;
#140 = DATE_AND_TIME ( #25, #42 ) ;
#141 = CARTESIAN_POINT ( 'NONE',  ( 0.000000000000000000, 0.000000000000000000, 0.000000000000000000 ) ) ;
#142 =( LENGTH_UNIT ( ) NAMED_UNIT ( * ) SI_UNIT ( .MILLI., .METRE. ) );
#143 = APPROVAL ( #50, 'UNSPECIFIED' ) ;
#144 = FACE_OUTER_BOUND ( 'NONE', #132, .T. ) ;
#145 = CARTESIAN_POINT ( 'NONE',  ( -12.50000000000000000, 0.000000000000000000, 3.000000000000000000 ) ) ;
#146 = EDGE_CURVE ( 'NONE', #88, #45, #68, .T. ) ;
#147 = DESIGN_CONTEXT ( 'detailed design', #93, 'design' ) ;
#148 = ORIENTED_EDGE ( 'NONE', *, *, #97, .F. ) ;
#149 = VERTEX_POINT ( 'NONE', #115 ) ;
#150 =( NAMED_UNIT ( * ) PLANE_ANGLE_UNIT ( ) SI_UNIT ( $, .RADIAN. ) );
#151 = CARTESIAN_POINT ( 'NONE',  ( 0.000000000000000000, 0.000000000000000000, 0.000000000000000000 ) ) ;
#152 = APPROVAL_PERSON_ORGANIZATION ( #67, #139, #56 ) ;
#153 = CARTESIAN_POINT ( 'NONE',  ( 0.000000000000000000, 0.000000000000000000, 3.000000000000000000 ) ) ;
#154 = DIRECTION ( 'NONE',  ( -0.000000000000000000, -0.000000000000000000, -1.000000000000000000 ) ) ;
#155 = CC_DESIGN_PERSON_AND_ORGANIZATION_ASSIGNMENT ( #39, #91, ( #4 ) ) ;
#156 = APPLICATION_CONTEXT ( 'configuration controlled 3d designs of mechanical parts and assemblies' ) ;
#157 = ORIENTED_EDGE ( 'NONE', *, *, #146, .T. ) ;
#158 = EDGE_LOOP ( 'NONE', ( #134, #81 ) ) ;
#159 = CARTESIAN_POINT ( 'NONE',  ( 12.50000000000000000, 1.530808498934191521E-15, 3.000000000000000000 ) ) ;
#160 = APPROVAL_ROLE ( '' ) ;
#161 = COORDINATED_UNIVERSAL_TIME_OFFSET ( 5, 0, .BEHIND. ) ;
#162 = PERSON_AND_ORGANIZATION ( #76, #20 ) ;
#163 =( NAMED_UNIT ( * ) SI_UNIT ( $, .STERADIAN. ) SOLID_ANGLE_UNIT ( ) );
#164 = LOCAL_TIME ( 11, 3, 58.00000000000000000, #174 ) ;
#165 = EDGE_CURVE ( 'NONE', #45, #149, #124, .T. ) ;
#166 = AXIS2_PLACEMENT_3D ( 'NONE', #168, #43, #31 ) ;
#167 = ORIENTED_EDGE ( 'NONE', *, *, #131, .T. ) ;
#168 = CARTESIAN_POINT ( 'NONE',  ( 0.000000000000000000, 0.000000000000000000, 0.000000000000000000 ) ) ;
#169 = DIRECTION ( 'NONE',  ( 0.000000000000000000, 0.000000000000000000, 1.000000000000000000 ) ) ;
#170 = DIRECTION ( 'NONE',  ( 0.000000000000000000, 0.000000000000000000, 1.000000000000000000 ) ) ;
#171 = ORIENTED_EDGE ( 'NONE', *, *, #165, .T. ) ;
#172 = PRODUCT_RELATED_PRODUCT_CATEGORY ( 'detail', '', ( #38 ) ) ;
#173 = APPROVAL_ROLE ( '' ) ;
#174 = COORDINATED_UNIVERSAL_TIME_OFFSET ( 5, 0, .BEHIND. ) ;
#175 = COORDINATED_UNIVERSAL_TIME_OFFSET ( 5, 0, .BEHIND. ) ;
ENDSEC;
END-ISO-10303-21;
