ISO-10303-21;
HEADER;
FILE_DESCRIPTION (( 'STEP AP203' ),
    '1' );
FILE_NAME ('ISP Flat Parts_16797.step',
    '2020-12-15T21:24:44',
    ( '' ),
    ( '' ),
    'SwSTEP 2.0',
    'SolidWorks 2018',
    '' );
FILE_SCHEMA (( 'CONFIG_CONTROL_DESIGN' ));
ENDSEC;

DATA;
#1 = CIRCLE ( 'NONE', #175, 12.69999999999999929 ) ;
#2 = PRODUCT_RELATED_PRODUCT_CATEGORY ( 'detail', '', ( #169 ) ) ;
#3 = EDGE_LOOP ( 'NONE', ( #119, #126 ) ) ;
#4 = LOCAL_TIME ( 16, 24, 44.00000000000000000, #88 ) ;
#5 = CC_DESIGN_DATE_AND_TIME_ASSIGNMENT ( #80, #35, ( #140 ) ) ;
#6 = SHAPE_DEFINITION_REPRESENTATION ( #14, #63 ) ;
#7 = DIRECTION ( 'NONE',  ( 1.000000000000000000, 0.0000000000000000000, -0.0000000000000000000 ) ) ;
#8 = APPLICATION_PROTOCOL_DEFINITION ( 'international standard', 'config_control_design', 1994, #105 ) ;
#9 = APPROVAL_ROLE ( '' ) ;
#10 = LOCAL_TIME ( 16, 24, 44.00000000000000000, #114 ) ;
#11 = ADVANCED_FACE ( 'NONE', ( #22 ), #129, .T. ) ;
#12 = PERSON_AND_ORGANIZATION ( #101, #84 ) ;
#13 = AXIS2_PLACEMENT_3D ( 'NONE', #142, #58, #38 ) ;
#14 = PRODUCT_DEFINITION_SHAPE ( 'NONE', 'NONE',  #140 ) ;
#15 = CARTESIAN_POINT ( 'NONE',  ( 12.69999999999999929, 1.555301434917138433E-15, 3.000000000000000000 ) ) ;
#16 = UNCERTAINTY_MEASURE_WITH_UNIT (LENGTH_MEASURE( 1.000000000000000082E-05 ), #77, 'distance_accuracy_value', 'NONE');
#17 = VERTEX_POINT ( 'NONE', #89 ) ;
#18 = DIRECTION ( 'NONE',  ( 1.000000000000000000, 0.0000000000000000000, 0.0000000000000000000 ) ) ;
#19 = COORDINATED_UNIVERSAL_TIME_OFFSET ( 5, 0, .BEHIND. ) ;
#20 = CARTESIAN_POINT ( 'NONE',  ( 12.69999999999999929, 1.555301434917138433E-15, 0.0000000000000000000 ) ) ;
#21 = APPROVAL_ROLE ( '' ) ;
#22 = FACE_OUTER_BOUND ( 'NONE', #66, .T. ) ;
#23 = ORIENTED_EDGE ( 'NONE', *, *, #113, .T. ) ;
#24 = APPROVAL_STATUS ( 'not_yet_approved' ) ;
#25 = APPROVAL ( #173, 'UNSPECIFIED' ) ;
#26 = ORIENTED_EDGE ( 'NONE', *, *, #148, .F. ) ;
#27 =( GEOMETRIC_REPRESENTATION_CONTEXT ( 3 ) GLOBAL_UNCERTAINTY_ASSIGNED_CONTEXT ( ( #16 ) ) GLOBAL_UNIT_ASSIGNED_CONTEXT ( ( #77, #108, #133 ) ) REPRESENTATION_CONTEXT ( 'NONE', 'WORKASPACE' ) );
#28 = VERTEX_POINT ( 'NONE', #20 ) ;
#29 = EDGE_LOOP ( 'NONE', ( #157, #83 ) ) ;
#30 = PERSON_AND_ORGANIZATION ( #101, #84 ) ;
#31 = CC_DESIGN_APPROVAL ( #25, ( #37 ) ) ;
#32 = DIRECTION ( 'NONE',  ( -0.0000000000000000000, -0.0000000000000000000, -1.000000000000000000 ) ) ;
#33 = CARTESIAN_POINT ( 'NONE',  ( 0.0000000000000000000, 0.0000000000000000000, 0.0000000000000000000 ) ) ;
#34 = CYLINDRICAL_SURFACE ( 'NONE', #54, 12.69999999999999929 ) ;
#35 = DATE_TIME_ROLE ( 'creation_date' ) ;
#36 = ADVANCED_FACE ( 'NONE', ( #162 ), #55, .F. ) ;
#37 = PRODUCT_DEFINITION_FORMATION_WITH_SPECIFIED_SOURCE ( 'ANY', '', #169, .NOT_KNOWN. ) ;
#38 = DIRECTION ( 'NONE',  ( 1.000000000000000000, 0.0000000000000000000, 0.0000000000000000000 ) ) ;
#39 = DATE_TIME_ROLE ( 'classification_date' ) ;
#40 = PERSON_AND_ORGANIZATION ( #101, #84 ) ;
#41 = ORIENTED_EDGE ( 'NONE', *, *, #61, .T. ) ;
#42 = ORIENTED_EDGE ( 'NONE', *, *, #61, .F. ) ;
#43 = LINE ( 'NONE', #15, #116 ) ;
#44 = DIRECTION ( 'NONE',  ( 1.000000000000000000, 0.0000000000000000000, 0.0000000000000000000 ) ) ;
#45 = CARTESIAN_POINT ( 'NONE',  ( 12.69999999999999929, 1.555301434917138433E-15, 3.000000000000000000 ) ) ;
#46 = CARTESIAN_POINT ( 'NONE',  ( 0.0000000000000000000, 0.0000000000000000000, 3.000000000000000000 ) ) ;
#47 = APPROVAL_PERSON_ORGANIZATION ( #40, #161, #21 ) ;
#48 = DATE_AND_TIME ( #153, #124 ) ;
#49 = AXIS2_PLACEMENT_3D ( 'NONE', #171, #139, #130 ) ;
#50 = APPROVAL_PERSON_ORGANIZATION ( #120, #25, #159 ) ;
#51 = EDGE_CURVE ( 'NONE', #87, #109, #111, .T. ) ;
#52 = COORDINATED_UNIVERSAL_TIME_OFFSET ( 5, 0, .BEHIND. ) ;
#53 = CARTESIAN_POINT ( 'NONE',  ( 0.0000000000000000000, 0.0000000000000000000, 0.0000000000000000000 ) ) ;
#54 = AXIS2_PLACEMENT_3D ( 'NONE', #46, #138, #170 ) ;
#55 = PLANE ( 'NONE',  #144 ) ;
#56 = CARTESIAN_POINT ( 'NONE',  ( 0.0000000000000000000, 0.0000000000000000000, 3.000000000000000000 ) ) ;
#57 = DIRECTION ( 'NONE',  ( 0.0000000000000000000, 0.0000000000000000000, 1.000000000000000000 ) ) ;
#58 = DIRECTION ( 'NONE',  ( 0.0000000000000000000, 0.0000000000000000000, 1.000000000000000000 ) ) ;
#59 = DIRECTION ( 'NONE',  ( 0.0000000000000000000, 0.0000000000000000000, 1.000000000000000000 ) ) ;
#60 = APPROVAL_DATE_TIME ( #93, #161 ) ;
#61 = EDGE_CURVE ( 'NONE', #87, #17, #167, .T. ) ;
#62 = MECHANICAL_CONTEXT ( 'NONE', #121, 'mechanical' ) ;
#63 = ADVANCED_BREP_SHAPE_REPRESENTATION ( 'ISP Flat Parts_16797', ( #78, #13 ), #27 ) ;
#64 = FACE_OUTER_BOUND ( 'NONE', #147, .T. ) ;
#65 = PERSON_AND_ORGANIZATION ( #101, #84 ) ;
#66 = EDGE_LOOP ( 'NONE', ( #26, #150, #41, #23 ) ) ;
#67 = CC_DESIGN_PERSON_AND_ORGANIZATION_ASSIGNMENT ( #127, #76, ( #140 ) ) ;
#68 = DATE_AND_TIME ( #123, #145 ) ;
#69 = AXIS2_PLACEMENT_3D ( 'NONE', #53, #57, #155 ) ;
#70 = CALENDAR_DATE ( 2020, 15, 12 ) ;
#71 = CARTESIAN_POINT ( 'NONE',  ( -12.69999999999999929, 0.0000000000000000000, 3.000000000000000000 ) ) ;
#72 = DIRECTION ( 'NONE',  ( 0.0000000000000000000, 0.0000000000000000000, 1.000000000000000000 ) ) ;
#73 = DIRECTION ( 'NONE',  ( 0.0000000000000000000, 0.0000000000000000000, 1.000000000000000000 ) ) ;
#74 = SECURITY_CLASSIFICATION_LEVEL ( 'unclassified' ) ;
#75 = EDGE_CURVE ( 'NONE', #28, #17, #141, .T. ) ;
#76 = PERSON_AND_ORGANIZATION_ROLE ( 'creator' ) ;
#77 =( LENGTH_UNIT ( ) NAMED_UNIT ( * ) SI_UNIT ( .MILLI., .METRE. ) );
#78 = MANIFOLD_SOLID_BREP ( 'Boss-Extrude1', #86 ) ;
#79 = PERSON_AND_ORGANIZATION_ROLE ( 'classification_officer' ) ;
#80 = DATE_AND_TIME ( #152, #4 ) ;
#81 = CARTESIAN_POINT ( 'NONE',  ( 0.0000000000000000000, 0.0000000000000000000, 3.000000000000000000 ) ) ;
#82 = CC_DESIGN_PERSON_AND_ORGANIZATION_ASSIGNMENT ( #132, #79, ( #85 ) ) ;
#83 = ORIENTED_EDGE ( 'NONE', *, *, #75, .F. ) ;
#84 = ORGANIZATION ( 'UNSPECIFIED', 'UNSPECIFIED', '' ) ;
#85 = SECURITY_CLASSIFICATION ( '', '', #74 ) ;
#86 = CLOSED_SHELL ( 'NONE', ( #107, #11, #110, #36 ) ) ;
#87 = VERTEX_POINT ( 'NONE', #71 ) ;
#88 = COORDINATED_UNIVERSAL_TIME_OFFSET ( 5, 0, .BEHIND. ) ;
#89 = CARTESIAN_POINT ( 'NONE',  ( -12.69999999999999929, 0.0000000000000000000, 0.0000000000000000000 ) ) ;
#90 = PLANE ( 'NONE',  #135 ) ;
#91 = DIRECTION ( 'NONE',  ( 0.0000000000000000000, 0.0000000000000000000, 1.000000000000000000 ) ) ;
#92 = ORIENTED_EDGE ( 'NONE', *, *, #148, .T. ) ;
#93 = DATE_AND_TIME ( #164, #99 ) ;
#94 = PERSON_AND_ORGANIZATION_ROLE ( 'design_supplier' ) ;
#95 = CC_DESIGN_PERSON_AND_ORGANIZATION_ASSIGNMENT ( #12, #174, ( #169 ) ) ;
#96 = APPROVAL_PERSON_ORGANIZATION ( #65, #115, #9 ) ;
#97 = AXIS2_PLACEMENT_3D ( 'NONE', #33, #73, #44 ) ;
#98 = ORIENTED_EDGE ( 'NONE', *, *, #75, .T. ) ;
#99 = LOCAL_TIME ( 16, 24, 44.00000000000000000, #19 ) ;
#100 = AXIS2_PLACEMENT_3D ( 'NONE', #102, #158, #18 ) ;
#101 = PERSON ( 'UNSPECIFIED', 'UNSPECIFIED', 'UNSPECIFIED', ('UNSPECIFIED'), ('UNSPECIFIED'), ('UNSPECIFIED') ) ;
#102 = CARTESIAN_POINT ( 'NONE',  ( 0.0000000000000000000, 0.0000000000000000000, 3.000000000000000000 ) ) ;
#103 = DIRECTION ( 'NONE',  ( 1.000000000000000000, 0.0000000000000000000, -0.0000000000000000000 ) ) ;
#104 = CIRCLE ( 'NONE', #97, 12.69999999999999929 ) ;
#105 = APPLICATION_CONTEXT ( 'configuration controlled 3d designs of mechanical parts and assemblies' ) ;
#106 = CC_DESIGN_PERSON_AND_ORGANIZATION_ASSIGNMENT ( #30, #163, ( #37 ) ) ;
#107 = ADVANCED_FACE ( 'NONE', ( #64 ), #34, .T. ) ;
#108 =( NAMED_UNIT ( * ) PLANE_ANGLE_UNIT ( ) SI_UNIT ( $, .RADIAN. ) );
#109 = VERTEX_POINT ( 'NONE', #45 ) ;
#110 = ADVANCED_FACE ( 'NONE', ( #112 ), #90, .T. ) ;
#111 = CIRCLE ( 'NONE', #100, 12.69999999999999929 ) ;
#112 = FACE_OUTER_BOUND ( 'NONE', #3, .T. ) ;
#113 = EDGE_CURVE ( 'NONE', #17, #28, #104, .T. ) ;
#114 = COORDINATED_UNIVERSAL_TIME_OFFSET ( 5, 0, .BEHIND. ) ;
#115 = APPROVAL ( #24, 'UNSPECIFIED' ) ;
#116 = VECTOR ( 'NONE', #137, 1000.000000000000000 ) ;
#117 = CC_DESIGN_DATE_AND_TIME_ASSIGNMENT ( #149, #39, ( #85 ) ) ;
#118 = CARTESIAN_POINT ( 'NONE',  ( -12.69999999999999929, 0.0000000000000000000, 3.000000000000000000 ) ) ;
#119 = ORIENTED_EDGE ( 'NONE', *, *, #51, .T. ) ;
#120 = PERSON_AND_ORGANIZATION ( #101, #84 ) ;
#121 = APPLICATION_CONTEXT ( 'configuration controlled 3d designs of mechanical parts and assemblies' ) ;
#122 = CC_DESIGN_SECURITY_CLASSIFICATION ( #85, ( #37 ) ) ;
#123 = CALENDAR_DATE ( 2020, 15, 12 ) ;
#124 = LOCAL_TIME ( 16, 24, 44.00000000000000000, #143 ) ;
#125 = CC_DESIGN_PERSON_AND_ORGANIZATION_ASSIGNMENT ( #134, #94, ( #37 ) ) ;
#126 = ORIENTED_EDGE ( 'NONE', *, *, #154, .T. ) ;
#127 = PERSON_AND_ORGANIZATION ( #101, #84 ) ;
#128 = APPROVAL_DATE_TIME ( #68, #115 ) ;
#129 = CYLINDRICAL_SURFACE ( 'NONE', #49, 12.69999999999999929 ) ;
#130 = DIRECTION ( 'NONE',  ( -1.000000000000000000, 0.0000000000000000000, 0.0000000000000000000 ) ) ;
#131 = ORIENTED_EDGE ( 'NONE', *, *, #154, .F. ) ;
#132 = PERSON_AND_ORGANIZATION ( #101, #84 ) ;
#133 =( NAMED_UNIT ( * ) SI_UNIT ( $, .STERADIAN. ) SOLID_ANGLE_UNIT ( ) );
#134 = PERSON_AND_ORGANIZATION ( #101, #84 ) ;
#135 = AXIS2_PLACEMENT_3D ( 'NONE', #56, #91, #103 ) ;
#136 = VECTOR ( 'NONE', #32, 1000.000000000000000 ) ;
#137 = DIRECTION ( 'NONE',  ( -0.0000000000000000000, -0.0000000000000000000, -1.000000000000000000 ) ) ;
#138 = DIRECTION ( 'NONE',  ( -0.0000000000000000000, -0.0000000000000000000, -1.000000000000000000 ) ) ;
#139 = DIRECTION ( 'NONE',  ( -0.0000000000000000000, -0.0000000000000000000, -1.000000000000000000 ) ) ;
#140 = PRODUCT_DEFINITION ( 'UNKNOWN', '', #37, #166 ) ;
#141 = CIRCLE ( 'NONE', #69, 12.69999999999999929 ) ;
#142 = CARTESIAN_POINT ( 'NONE',  ( 0.0000000000000000000, 0.0000000000000000000, 0.0000000000000000000 ) ) ;
#143 = COORDINATED_UNIVERSAL_TIME_OFFSET ( 5, 0, .BEHIND. ) ;
#144 = AXIS2_PLACEMENT_3D ( 'NONE', #156, #72, #7 ) ;
#145 = LOCAL_TIME ( 16, 24, 44.00000000000000000, #52 ) ;
#146 = APPLICATION_PROTOCOL_DEFINITION ( 'international standard', 'config_control_design', 1994, #121 ) ;
#147 = EDGE_LOOP ( 'NONE', ( #131, #92, #98, #42 ) ) ;
#148 = EDGE_CURVE ( 'NONE', #109, #28, #43, .T. ) ;
#149 = DATE_AND_TIME ( #70, #10 ) ;
#150 = ORIENTED_EDGE ( 'NONE', *, *, #51, .F. ) ;
#151 = CC_DESIGN_APPROVAL ( #115, ( #140 ) ) ;
#152 = CALENDAR_DATE ( 2020, 15, 12 ) ;
#153 = CALENDAR_DATE ( 2020, 15, 12 ) ;
#154 = EDGE_CURVE ( 'NONE', #109, #87, #1, .T. ) ;
#155 = DIRECTION ( 'NONE',  ( 1.000000000000000000, 0.0000000000000000000, 0.0000000000000000000 ) ) ;
#156 = CARTESIAN_POINT ( 'NONE',  ( 0.0000000000000000000, 0.0000000000000000000, 0.0000000000000000000 ) ) ;
#157 = ORIENTED_EDGE ( 'NONE', *, *, #113, .F. ) ;
#158 = DIRECTION ( 'NONE',  ( 0.0000000000000000000, 0.0000000000000000000, 1.000000000000000000 ) ) ;
#159 = APPROVAL_ROLE ( '' ) ;
#160 = DIRECTION ( 'NONE',  ( 1.000000000000000000, 0.0000000000000000000, 0.0000000000000000000 ) ) ;
#161 = APPROVAL ( #172, 'UNSPECIFIED' ) ;
#162 = FACE_OUTER_BOUND ( 'NONE', #29, .T. ) ;
#163 = PERSON_AND_ORGANIZATION_ROLE ( 'creator' ) ;
#164 = CALENDAR_DATE ( 2020, 15, 12 ) ;
#165 = APPROVAL_DATE_TIME ( #48, #25 ) ;
#166 = DESIGN_CONTEXT ( 'detailed design', #105, 'design' ) ;
#167 = LINE ( 'NONE', #118, #136 ) ;
#168 = CC_DESIGN_APPROVAL ( #161, ( #85 ) ) ;
#169 = PRODUCT ( 'ISP Flat Parts_16797', 'ISP Flat Parts_16797', '', ( #62 ) ) ;
#170 = DIRECTION ( 'NONE',  ( -1.000000000000000000, 0.0000000000000000000, 0.0000000000000000000 ) ) ;
#171 = CARTESIAN_POINT ( 'NONE',  ( 0.0000000000000000000, 0.0000000000000000000, 3.000000000000000000 ) ) ;
#172 = APPROVAL_STATUS ( 'not_yet_approved' ) ;
#173 = APPROVAL_STATUS ( 'not_yet_approved' ) ;
#174 = PERSON_AND_ORGANIZATION_ROLE ( 'design_owner' ) ;
#175 = AXIS2_PLACEMENT_3D ( 'NONE', #81, #59, #160 ) ;
ENDSEC;
END-ISO-10303-21;
