ISO-10303-21;
HEADER;
FILE_DESCRIPTION (( 'STEP AP203' ),
    '1' );
FILE_NAME ('Web Model 14684_14685.step',
    '2020-04-13T13:38:21',
    ( '' ),
    ( '' ),
    'SwSTEP 2.0',
    'SolidWorks 2018',
    '' );
FILE_SCHEMA (( 'CONFIG_CONTROL_DESIGN' ));
ENDSEC;

DATA;
#1 = DATE_AND_TIME ( #5, #62 ) ;
#2 = LOCAL_TIME ( 9, 38, 21.00000000000000000, #167 ) ;
#3 = APPROVAL ( #163, 'UNSPECIFIED' ) ;
#4 = DIRECTION ( 'NONE',  ( 0.0000000000000000000, 0.0000000000000000000, 1.000000000000000000 ) ) ;
#5 = CALENDAR_DATE ( 2020, 13, 4 ) ;
#6 = ORIENTED_EDGE ( 'NONE', *, *, #112, .F. ) ;
#7 = APPROVAL_ROLE ( '' ) ;
#8 = CARTESIAN_POINT ( 'NONE',  ( 1.500000000000000000, 0.0000000000000000000, 0.0000000000000000000 ) ) ;
#9 = COORDINATED_UNIVERSAL_TIME_OFFSET ( 5, 0, .BEHIND. ) ;
#10 = DIRECTION ( 'NONE',  ( 1.000000000000000000, 0.0000000000000000000, 0.0000000000000000000 ) ) ;
#11 = APPROVAL_DATE_TIME ( #56, #34 ) ;
#12 = FACE_OUTER_BOUND ( 'NONE', #124, .T. ) ;
#13 = DIRECTION ( 'NONE',  ( 0.0000000000000000000, 0.0000000000000000000, -1.000000000000000000 ) ) ;
#14 = EDGE_CURVE ( 'NONE', #45, #100, #103, .T. ) ;
#15 = LINE ( 'NONE', #115, #139 ) ;
#16 = DIRECTION ( 'NONE',  ( 0.0000000000000000000, 0.0000000000000000000, 1.000000000000000000 ) ) ;
#17 = CC_DESIGN_PERSON_AND_ORGANIZATION_ASSIGNMENT ( #140, #94, ( #141 ) ) ;
#18 = LOCAL_TIME ( 9, 38, 21.00000000000000000, #51 ) ;
#19 = EDGE_CURVE ( 'NONE', #30, #100, #15, .T. ) ;
#20 = APPROVAL_STATUS ( 'not_yet_approved' ) ;
#21 = APPLICATION_PROTOCOL_DEFINITION ( 'international standard', 'config_control_design', 1994, #52 ) ;
#22 = CC_DESIGN_APPROVAL ( #3, ( #117 ) ) ;
#23 = PERSON_AND_ORGANIZATION_ROLE ( 'creator' ) ;
#24 = DIRECTION ( 'NONE',  ( 1.000000000000000000, 0.0000000000000000000, 0.0000000000000000000 ) ) ;
#25 = ADVANCED_FACE ( 'NONE', ( #12 ), #132, .T. ) ;
#26 = CALENDAR_DATE ( 2020, 13, 4 ) ;
#27 = FACE_OUTER_BOUND ( 'NONE', #73, .T. ) ;
#28 = FACE_OUTER_BOUND ( 'NONE', #33, .T. ) ;
#29 = CC_DESIGN_APPROVAL ( #34, ( #141 ) ) ;
#30 = VERTEX_POINT ( 'NONE', #89 ) ;
#31 = AXIS2_PLACEMENT_3D ( 'NONE', #136, #111, #69 ) ;
#32 = CARTESIAN_POINT ( 'NONE',  ( 1.500000000000000000, 1.555301434917138433E-15, -12.69999999999999929 ) ) ;
#33 = EDGE_LOOP ( 'NONE', ( #6, #63 ) ) ;
#34 = APPROVAL ( #20, 'UNSPECIFIED' ) ;
#35 = PLANE ( 'NONE',  #169 ) ;
#36 = DATE_AND_TIME ( #37, #18 ) ;
#37 = CALENDAR_DATE ( 2020, 13, 4 ) ;
#38 = ORIENTED_EDGE ( 'NONE', *, *, #61, .F. ) ;
#39 = DIRECTION ( 'NONE',  ( 0.0000000000000000000, 0.0000000000000000000, -1.000000000000000000 ) ) ;
#40 =( NAMED_UNIT ( * ) SI_UNIT ( $, .STERADIAN. ) SOLID_ANGLE_UNIT ( ) );
#41 = CC_DESIGN_PERSON_AND_ORGANIZATION_ASSIGNMENT ( #126, #134, ( #117 ) ) ;
#42 = ADVANCED_FACE ( 'NONE', ( #28 ), #156, .F. ) ;
#43 = APPROVAL_DATE_TIME ( #1, #46 ) ;
#44 = CC_DESIGN_DATE_AND_TIME_ASSIGNMENT ( #108, #66, ( #141 ) ) ;
#45 = VERTEX_POINT ( 'NONE', #75 ) ;
#46 = APPROVAL ( #162, 'UNSPECIFIED' ) ;
#47 = DATE_AND_TIME ( #120, #74 ) ;
#48 = PRODUCT ( 'Web Model 14684_14685', 'Web Model 14684_14685', '', ( #67 ) ) ;
#49 = CARTESIAN_POINT ( 'NONE',  ( 1.500000000000000000, 0.0000000000000000000, 0.0000000000000000000 ) ) ;
#50 = DIRECTION ( 'NONE',  ( 0.0000000000000000000, 0.0000000000000000000, -1.000000000000000000 ) ) ;
#51 = COORDINATED_UNIVERSAL_TIME_OFFSET ( 5, 0, .BEHIND. ) ;
#52 = APPLICATION_CONTEXT ( 'configuration controlled 3d designs of mechanical parts and assemblies' ) ;
#53 = PERSON_AND_ORGANIZATION_ROLE ( 'design_owner' ) ;
#54 = DATE_TIME_ROLE ( 'creation_date' ) ;
#55 = ADVANCED_FACE ( 'NONE', ( #27 ), #161, .T. ) ;
#56 = DATE_AND_TIME ( #175, #2 ) ;
#57 = ORIENTED_EDGE ( 'NONE', *, *, #19, .T. ) ;
#58 = ADVANCED_FACE ( 'NONE', ( #68 ), #35, .T. ) ;
#59 = PRODUCT_RELATED_PRODUCT_CATEGORY ( 'detail', '', ( #48 ) ) ;
#60 = ORIENTED_EDGE ( 'NONE', *, *, #99, .T. ) ;
#61 = EDGE_CURVE ( 'NONE', #95, #45, #138, .T. ) ;
#62 = LOCAL_TIME ( 9, 38, 21.00000000000000000, #85 ) ;
#63 = ORIENTED_EDGE ( 'NONE', *, *, #14, .F. ) ;
#64 = DIRECTION ( 'NONE',  ( -1.000000000000000000, -0.0000000000000000000, -0.0000000000000000000 ) ) ;
#65 = VECTOR ( 'NONE', #146, 1000.000000000000000 ) ;
#66 = DATE_TIME_ROLE ( 'classification_date' ) ;
#67 = MECHANICAL_CONTEXT ( 'NONE', #131, 'mechanical' ) ;
#68 = FACE_OUTER_BOUND ( 'NONE', #129, .T. ) ;
#69 = DIRECTION ( 'NONE',  ( 0.0000000000000000000, 0.0000000000000000000, -1.000000000000000000 ) ) ;
#70 = ORIENTED_EDGE ( 'NONE', *, *, #99, .F. ) ;
#71 = AXIS2_PLACEMENT_3D ( 'NONE', #104, #168, #13 ) ;
#72 = PERSON_AND_ORGANIZATION ( #149, #76 ) ;
#73 = EDGE_LOOP ( 'NONE', ( #38, #80, #57, #92 ) ) ;
#74 = LOCAL_TIME ( 9, 38, 21.00000000000000000, #151 ) ;
#75 = CARTESIAN_POINT ( 'NONE',  ( -1.500000000000000000, 1.555301434917138433E-15, -12.69999999999999929 ) ) ;
#76 = ORGANIZATION ( 'UNSPECIFIED', 'UNSPECIFIED', '' ) ;
#77 = DIRECTION ( 'NONE',  ( -1.000000000000000000, -0.0000000000000000000, -0.0000000000000000000 ) ) ;
#78 = PERSON_AND_ORGANIZATION ( #149, #76 ) ;
#79 = CARTESIAN_POINT ( 'NONE',  ( 1.500000000000000000, 1.555301434917138433E-15, -12.69999999999999929 ) ) ;
#80 = ORIENTED_EDGE ( 'NONE', *, *, #102, .F. ) ;
#81 = DIRECTION ( 'NONE',  ( 0.0000000000000000000, 0.0000000000000000000, -1.000000000000000000 ) ) ;
#82 = SECURITY_CLASSIFICATION_LEVEL ( 'unclassified' ) ;
#83 = APPROVAL_ROLE ( '' ) ;
#84 = DIRECTION ( 'NONE',  ( 1.000000000000000000, 0.0000000000000000000, 0.0000000000000000000 ) ) ;
#85 = COORDINATED_UNIVERSAL_TIME_OFFSET ( 5, 0, .BEHIND. ) ;
#86 = UNCERTAINTY_MEASURE_WITH_UNIT (LENGTH_MEASURE( 1.000000000000000082E-05 ), #121, 'distance_accuracy_value', 'NONE');
#87 = AXIS2_PLACEMENT_3D ( 'NONE', #164, #174, #10 ) ;
#88 = APPROVAL_PERSON_ORGANIZATION ( #145, #46, #172 ) ;
#89 = CARTESIAN_POINT ( 'NONE',  ( 1.500000000000000000, 0.0000000000000000000, 12.69999999999999929 ) ) ;
#90 = ORIENTED_EDGE ( 'NONE', *, *, #14, .T. ) ;
#91 = DESIGN_CONTEXT ( 'detailed design', #52, 'design' ) ;
#92 = ORIENTED_EDGE ( 'NONE', *, *, #112, .T. ) ;
#93 = CARTESIAN_POINT ( 'NONE',  ( 1.500000000000000000, 0.0000000000000000000, 0.0000000000000000000 ) ) ;
#94 = PERSON_AND_ORGANIZATION_ROLE ( 'classification_officer' ) ;
#95 = VERTEX_POINT ( 'NONE', #32 ) ;
#96 =( NAMED_UNIT ( * ) PLANE_ANGLE_UNIT ( ) SI_UNIT ( $, .RADIAN. ) );
#97 = CIRCLE ( 'NONE', #31, 12.69999999999999929 ) ;
#98 = CC_DESIGN_PERSON_AND_ORGANIZATION_ASSIGNMENT ( #160, #23, ( #158 ) ) ;
#99 = EDGE_CURVE ( 'NONE', #95, #30, #171, .T. ) ;
#100 = VERTEX_POINT ( 'NONE', #150 ) ;
#101 = PRODUCT_DEFINITION_SHAPE ( 'NONE', 'NONE',  #158 ) ;
#102 = EDGE_CURVE ( 'NONE', #30, #95, #166, .T. ) ;
#103 = CIRCLE ( 'NONE', #118, 12.69999999999999929 ) ;
#104 = CARTESIAN_POINT ( 'NONE',  ( -1.500000000000000000, 0.0000000000000000000, 0.0000000000000000000 ) ) ;
#105 = AXIS2_PLACEMENT_3D ( 'NONE', #8, #24, #39 ) ;
#106 = SHAPE_DEFINITION_REPRESENTATION ( #101, #133 ) ;
#107 = CC_DESIGN_DATE_AND_TIME_ASSIGNMENT ( #36, #54, ( #158 ) ) ;
#108 = DATE_AND_TIME ( #26, #114 ) ;
#109 = ORIENTED_EDGE ( 'NONE', *, *, #61, .T. ) ;
#110 =( GEOMETRIC_REPRESENTATION_CONTEXT ( 3 ) GLOBAL_UNCERTAINTY_ASSIGNED_CONTEXT ( ( #86 ) ) GLOBAL_UNIT_ASSIGNED_CONTEXT ( ( #121, #96, #40 ) ) REPRESENTATION_CONTEXT ( 'NONE', 'WORKASPACE' ) );
#111 = DIRECTION ( 'NONE',  ( 1.000000000000000000, 0.0000000000000000000, 0.0000000000000000000 ) ) ;
#112 = EDGE_CURVE ( 'NONE', #100, #45, #97, .T. ) ;
#113 = ORIENTED_EDGE ( 'NONE', *, *, #19, .F. ) ;
#114 = LOCAL_TIME ( 9, 38, 21.00000000000000000, #9 ) ;
#115 = CARTESIAN_POINT ( 'NONE',  ( 1.500000000000000000, 0.0000000000000000000, 12.69999999999999929 ) ) ;
#116 = PERSON_AND_ORGANIZATION ( #149, #76 ) ;
#117 = PRODUCT_DEFINITION_FORMATION_WITH_SPECIFIED_SOURCE ( 'ANY', '', #48, .NOT_KNOWN. ) ;
#118 = AXIS2_PLACEMENT_3D ( 'NONE', #143, #142, #130 ) ;
#119 = DIRECTION ( 'NONE',  ( 1.000000000000000000, 0.0000000000000000000, 0.0000000000000000000 ) ) ;
#120 = CALENDAR_DATE ( 2020, 13, 4 ) ;
#121 =( LENGTH_UNIT ( ) NAMED_UNIT ( * ) SI_UNIT ( .MILLI., .METRE. ) );
#122 = PERSON_AND_ORGANIZATION_ROLE ( 'creator' ) ;
#123 = CC_DESIGN_PERSON_AND_ORGANIZATION_ASSIGNMENT ( #72, #53, ( #48 ) ) ;
#124 = EDGE_LOOP ( 'NONE', ( #70, #109, #90, #113 ) ) ;
#125 = AXIS2_PLACEMENT_3D ( 'NONE', #159, #77, #4 ) ;
#126 = PERSON_AND_ORGANIZATION ( #149, #76 ) ;
#127 = ORIENTED_EDGE ( 'NONE', *, *, #102, .T. ) ;
#128 = CARTESIAN_POINT ( 'NONE',  ( 1.500000000000000000, 0.0000000000000000000, 0.0000000000000000000 ) ) ;
#129 = EDGE_LOOP ( 'NONE', ( #127, #60 ) ) ;
#130 = DIRECTION ( 'NONE',  ( 0.0000000000000000000, 0.0000000000000000000, -1.000000000000000000 ) ) ;
#131 = APPLICATION_CONTEXT ( 'configuration controlled 3d designs of mechanical parts and assemblies' ) ;
#132 = CYLINDRICAL_SURFACE ( 'NONE', #125, 12.69999999999999929 ) ;
#133 = ADVANCED_BREP_SHAPE_REPRESENTATION ( 'Web Model 14684_14685', ( #153, #87 ), #110 ) ;
#134 = PERSON_AND_ORGANIZATION_ROLE ( 'design_supplier' ) ;
#135 = CC_DESIGN_PERSON_AND_ORGANIZATION_ASSIGNMENT ( #116, #122, ( #117 ) ) ;
#136 = CARTESIAN_POINT ( 'NONE',  ( -1.500000000000000000, 0.0000000000000000000, 0.0000000000000000000 ) ) ;
#137 = AXIS2_PLACEMENT_3D ( 'NONE', #93, #84, #81 ) ;
#138 = LINE ( 'NONE', #79, #65 ) ;
#139 = VECTOR ( 'NONE', #157, 1000.000000000000000 ) ;
#140 = PERSON_AND_ORGANIZATION ( #149, #76 ) ;
#141 = SECURITY_CLASSIFICATION ( '', '', #82 ) ;
#142 = DIRECTION ( 'NONE',  ( 1.000000000000000000, 0.0000000000000000000, 0.0000000000000000000 ) ) ;
#143 = CARTESIAN_POINT ( 'NONE',  ( -1.500000000000000000, 0.0000000000000000000, 0.0000000000000000000 ) ) ;
#144 = CC_DESIGN_APPROVAL ( #46, ( #158 ) ) ;
#145 = PERSON_AND_ORGANIZATION ( #149, #76 ) ;
#146 = DIRECTION ( 'NONE',  ( -1.000000000000000000, -0.0000000000000000000, -0.0000000000000000000 ) ) ;
#147 = APPROVAL_DATE_TIME ( #47, #3 ) ;
#148 = CLOSED_SHELL ( 'NONE', ( #25, #55, #58, #42 ) ) ;
#149 = PERSON ( 'UNSPECIFIED', 'UNSPECIFIED', 'UNSPECIFIED', ('UNSPECIFIED'), ('UNSPECIFIED'), ('UNSPECIFIED') ) ;
#150 = CARTESIAN_POINT ( 'NONE',  ( -1.500000000000000000, 0.0000000000000000000, 12.69999999999999929 ) ) ;
#151 = COORDINATED_UNIVERSAL_TIME_OFFSET ( 5, 0, .BEHIND. ) ;
#152 = AXIS2_PLACEMENT_3D ( 'NONE', #128, #64, #16 ) ;
#153 = MANIFOLD_SOLID_BREP ( 'Boss-Extrude1', #148 ) ;
#154 = APPROVAL_PERSON_ORGANIZATION ( #170, #34, #7 ) ;
#155 = CC_DESIGN_SECURITY_CLASSIFICATION ( #141, ( #117 ) ) ;
#156 = PLANE ( 'NONE',  #71 ) ;
#157 = DIRECTION ( 'NONE',  ( -1.000000000000000000, -0.0000000000000000000, -0.0000000000000000000 ) ) ;
#158 = PRODUCT_DEFINITION ( 'UNKNOWN', '', #117, #91 ) ;
#159 = CARTESIAN_POINT ( 'NONE',  ( 1.500000000000000000, 0.0000000000000000000, 0.0000000000000000000 ) ) ;
#160 = PERSON_AND_ORGANIZATION ( #149, #76 ) ;
#161 = CYLINDRICAL_SURFACE ( 'NONE', #152, 12.69999999999999929 ) ;
#162 = APPROVAL_STATUS ( 'not_yet_approved' ) ;
#163 = APPROVAL_STATUS ( 'not_yet_approved' ) ;
#164 = CARTESIAN_POINT ( 'NONE',  ( 0.0000000000000000000, 0.0000000000000000000, 0.0000000000000000000 ) ) ;
#165 = APPROVAL_PERSON_ORGANIZATION ( #78, #3, #83 ) ;
#166 = CIRCLE ( 'NONE', #105, 12.69999999999999929 ) ;
#167 = COORDINATED_UNIVERSAL_TIME_OFFSET ( 5, 0, .BEHIND. ) ;
#168 = DIRECTION ( 'NONE',  ( 1.000000000000000000, 0.0000000000000000000, 0.0000000000000000000 ) ) ;
#169 = AXIS2_PLACEMENT_3D ( 'NONE', #49, #119, #50 ) ;
#170 = PERSON_AND_ORGANIZATION ( #149, #76 ) ;
#171 = CIRCLE ( 'NONE', #137, 12.69999999999999929 ) ;
#172 = APPROVAL_ROLE ( '' ) ;
#173 = APPLICATION_PROTOCOL_DEFINITION ( 'international standard', 'config_control_design', 1994, #131 ) ;
#174 = DIRECTION ( 'NONE',  ( 0.0000000000000000000, 0.0000000000000000000, 1.000000000000000000 ) ) ;
#175 = CALENDAR_DATE ( 2020, 13, 4 ) ;
ENDSEC;
END-ISO-10303-21;
