ISO-10303-21;
HEADER;
FILE_DESCRIPTION (( 'STEP AP203' ),
    '1' );
FILE_NAME ('Web Model 19730_19733.step',
    '2022-03-22T14:57:39',
    ( '' ),
    ( '' ),
    'SwSTEP 2.0',
    'SolidWorks 2021',
    '' );
FILE_SCHEMA (( 'CONFIG_CONTROL_DESIGN' ));
ENDSEC;

DATA;
#1 = LOCAL_TIME ( 10, 57, 39.00000000000000000, #20 ) ;
#2 =( NAMED_UNIT ( * ) SI_UNIT ( $, .STERADIAN. ) SOLID_ANGLE_UNIT ( ) );
#3 = LOCAL_TIME ( 10, 57, 39.00000000000000000, #155 ) ;
#4 = FACE_OUTER_BOUND ( 'NONE', #22, .T. ) ;
#5 = PERSON_AND_ORGANIZATION ( #58, #84 ) ;
#6 = ORIENTED_EDGE ( 'NONE', *, *, #104, .T. ) ;
#7 = FACE_OUTER_BOUND ( 'NONE', #121, .T. ) ;
#8 = PLANE ( 'NONE',  #39 ) ;
#9 = AXIS2_PLACEMENT_3D ( 'NONE', #24, #158, #28 ) ;
#10 = PRODUCT ( 'Web Model 19730_19733', 'Web Model 19730_19733', '', ( #135 ) ) ;
#11 = LOCAL_TIME ( 10, 57, 39.00000000000000000, #106 ) ;
#12 = APPROVAL ( #82, 'UNSPECIFIED' ) ;
#13 = CALENDAR_DATE ( 2022, 22, 3 ) ;
#14 = CARTESIAN_POINT ( 'NONE',  ( 0.000000000000000000, 0.000000000000000000, 0.000000000000000000 ) ) ;
#15 = DIRECTION ( 'NONE',  ( 0.000000000000000000, 0.000000000000000000, 1.000000000000000000 ) ) ;
#16 = UNCERTAINTY_MEASURE_WITH_UNIT (LENGTH_MEASURE( 1.000000000000000082E-05 ), #97, 'distance_accuracy_value', 'NONE');
#17 = AXIS2_PLACEMENT_3D ( 'NONE', #137, #130, #54 ) ;
#18 = DIRECTION ( 'NONE',  ( -0.000000000000000000, -0.000000000000000000, -1.000000000000000000 ) ) ;
#19 = CALENDAR_DATE ( 2022, 22, 3 ) ;
#20 = COORDINATED_UNIVERSAL_TIME_OFFSET ( 5, 0, .BEHIND. ) ;
#21 = CARTESIAN_POINT ( 'NONE',  ( 10.00000000000000000, 1.224646799147353256E-15, 2.000000000000000000 ) ) ;
#22 = EDGE_LOOP ( 'NONE', ( #125, #90, #87, #139 ) ) ;
#23 = CARTESIAN_POINT ( 'NONE',  ( 10.00000000000000000, 1.224646799147353256E-15, 2.000000000000000000 ) ) ;
#24 = CARTESIAN_POINT ( 'NONE',  ( 0.000000000000000000, 0.000000000000000000, 0.000000000000000000 ) ) ;
#25 = COORDINATED_UNIVERSAL_TIME_OFFSET ( 5, 0, .BEHIND. ) ;
#26 = APPLICATION_PROTOCOL_DEFINITION ( 'international standard', 'config_control_design', 1994, #142 ) ;
#27 = CC_DESIGN_DATE_AND_TIME_ASSIGNMENT ( #57, #149, ( #99 ) ) ;
#28 = DIRECTION ( 'NONE',  ( 1.000000000000000000, 0.000000000000000000, 0.000000000000000000 ) ) ;
#29 = APPROVAL_DATE_TIME ( #83, #12 ) ;
#30 = APPROVAL_DATE_TIME ( #123, #127 ) ;
#31 = PRODUCT_DEFINITION ( 'UNKNOWN', '', #37, #132 ) ;
#32 = VERTEX_POINT ( 'NONE', #21 ) ;
#33 = EDGE_LOOP ( 'NONE', ( #150, #52, #108, #92 ) ) ;
#34 = ORIENTED_EDGE ( 'NONE', *, *, #40, .T. ) ;
#35 = LINE ( 'NONE', #49, #116 ) ;
#36 = ADVANCED_FACE ( 'NONE', ( #7 ), #8, .T. ) ;
#37 = PRODUCT_DEFINITION_FORMATION_WITH_SPECIFIED_SOURCE ( 'ANY', '', #10, .NOT_KNOWN. ) ;
#38 =( GEOMETRIC_REPRESENTATION_CONTEXT ( 3 ) GLOBAL_UNCERTAINTY_ASSIGNED_CONTEXT ( ( #16 ) ) GLOBAL_UNIT_ASSIGNED_CONTEXT ( ( #97, #131, #2 ) ) REPRESENTATION_CONTEXT ( 'NONE', 'WORKASPACE' ) );
#39 = AXIS2_PLACEMENT_3D ( 'NONE', #76, #46, #141 ) ;
#40 = EDGE_CURVE ( 'NONE', #77, #32, #163, .T. ) ;
#41 = CYLINDRICAL_SURFACE ( 'NONE', #17, 10.00000000000000000 ) ;
#42 = CARTESIAN_POINT ( 'NONE',  ( -10.00000000000000000, 0.000000000000000000, 0.000000000000000000 ) ) ;
#43 = APPROVAL_ROLE ( '' ) ;
#44 = CC_DESIGN_APPROVAL ( #109, ( #99 ) ) ;
#45 = PERSON_AND_ORGANIZATION ( #58, #84 ) ;
#46 = DIRECTION ( 'NONE',  ( 0.000000000000000000, 0.000000000000000000, 1.000000000000000000 ) ) ;
#47 = VERTEX_POINT ( 'NONE', #174 ) ;
#48 = PERSON_AND_ORGANIZATION_ROLE ( 'design_supplier' ) ;
#49 = CARTESIAN_POINT ( 'NONE',  ( -10.00000000000000000, 0.000000000000000000, 2.000000000000000000 ) ) ;
#50 = EDGE_CURVE ( 'NONE', #77, #103, #35, .T. ) ;
#51 = AXIS2_PLACEMENT_3D ( 'NONE', #71, #80, #169 ) ;
#52 = ORIENTED_EDGE ( 'NONE', *, *, #88, .T. ) ;
#53 = APPROVAL_PERSON_ORGANIZATION ( #115, #12, #43 ) ;
#54 = DIRECTION ( 'NONE',  ( -1.000000000000000000, 0.000000000000000000, 0.000000000000000000 ) ) ;
#55 = PERSON_AND_ORGANIZATION ( #58, #84 ) ;
#56 = DIRECTION ( 'NONE',  ( 1.000000000000000000, 0.000000000000000000, 0.000000000000000000 ) ) ;
#57 = DATE_AND_TIME ( #162, #66 ) ;
#58 = PERSON ( 'UNSPECIFIED', 'UNSPECIFIED', 'UNSPECIFIED', ('UNSPECIFIED'), ('UNSPECIFIED'), ('UNSPECIFIED') ) ;
#59 = SECURITY_CLASSIFICATION_LEVEL ( 'unclassified' ) ;
#60 = DATE_TIME_ROLE ( 'creation_date' ) ;
#61 = CARTESIAN_POINT ( 'NONE',  ( 0.000000000000000000, 0.000000000000000000, 2.000000000000000000 ) ) ;
#62 = EDGE_LOOP ( 'NONE', ( #74, #152 ) ) ;
#63 = VECTOR ( 'NONE', #120, 1000.000000000000000 ) ;
#64 = APPROVAL_PERSON_ORGANIZATION ( #45, #127, #102 ) ;
#65 = PRODUCT_RELATED_PRODUCT_CATEGORY ( 'detail', '', ( #10 ) ) ;
#66 = LOCAL_TIME ( 10, 57, 39.00000000000000000, #86 ) ;
#67 = CC_DESIGN_PERSON_AND_ORGANIZATION_ASSIGNMENT ( #73, #48, ( #37 ) ) ;
#68 = CARTESIAN_POINT ( 'NONE',  ( 0.000000000000000000, 0.000000000000000000, 2.000000000000000000 ) ) ;
#69 = CYLINDRICAL_SURFACE ( 'NONE', #175, 10.00000000000000000 ) ;
#70 = FACE_OUTER_BOUND ( 'NONE', #62, .T. ) ;
#71 = CARTESIAN_POINT ( 'NONE',  ( 0.000000000000000000, 0.000000000000000000, 2.000000000000000000 ) ) ;
#72 = CC_DESIGN_DATE_AND_TIME_ASSIGNMENT ( #91, #60, ( #31 ) ) ;
#73 = PERSON_AND_ORGANIZATION ( #58, #84 ) ;
#74 = ORIENTED_EDGE ( 'NONE', *, *, #165, .F. ) ;
#75 = PERSON_AND_ORGANIZATION_ROLE ( 'creator' ) ;
#76 = CARTESIAN_POINT ( 'NONE',  ( 0.000000000000000000, 0.000000000000000000, 2.000000000000000000 ) ) ;
#77 = VERTEX_POINT ( 'NONE', #94 ) ;
#78 = LOCAL_TIME ( 10, 57, 39.00000000000000000, #25 ) ;
#79 = AXIS2_PLACEMENT_3D ( 'NONE', #61, #124, #173 ) ;
#80 = DIRECTION ( 'NONE',  ( 0.000000000000000000, 0.000000000000000000, 1.000000000000000000 ) ) ;
#81 = ADVANCED_BREP_SHAPE_REPRESENTATION ( 'Web Model 19730_19733', ( #134, #107 ), #38 ) ;
#82 = APPROVAL_STATUS ( 'not_yet_approved' ) ;
#83 = DATE_AND_TIME ( #144, #78 ) ;
#84 = ORGANIZATION ( 'UNSPECIFIED', 'UNSPECIFIED', '' ) ;
#85 = AXIS2_PLACEMENT_3D ( 'NONE', #113, #15, #167 ) ;
#86 = COORDINATED_UNIVERSAL_TIME_OFFSET ( 5, 0, .BEHIND. ) ;
#87 = ORIENTED_EDGE ( 'NONE', *, *, #50, .T. ) ;
#88 = EDGE_CURVE ( 'NONE', #32, #47, #153, .T. ) ;
#89 = CALENDAR_DATE ( 2022, 22, 3 ) ;
#90 = ORIENTED_EDGE ( 'NONE', *, *, #40, .F. ) ;
#91 = DATE_AND_TIME ( #13, #3 ) ;
#92 = ORIENTED_EDGE ( 'NONE', *, *, #50, .F. ) ;
#93 = CC_DESIGN_APPROVAL ( #127, ( #37 ) ) ;
#94 = CARTESIAN_POINT ( 'NONE',  ( -10.00000000000000000, 0.000000000000000000, 2.000000000000000000 ) ) ;
#95 = CIRCLE ( 'NONE', #126, 10.00000000000000000 ) ;
#96 = ADVANCED_FACE ( 'NONE', ( #70 ), #160, .F. ) ;
#97 =( LENGTH_UNIT ( ) NAMED_UNIT ( * ) SI_UNIT ( .MILLI., .METRE. ) );
#98 = APPLICATION_PROTOCOL_DEFINITION ( 'international standard', 'config_control_design', 1994, #122 ) ;
#99 = SECURITY_CLASSIFICATION ( '', '', #59 ) ;
#100 = EDGE_CURVE ( 'NONE', #47, #103, #166, .T. ) ;
#101 = PERSON_AND_ORGANIZATION_ROLE ( 'creator' ) ;
#102 = APPROVAL_ROLE ( '' ) ;
#103 = VERTEX_POINT ( 'NONE', #42 ) ;
#104 = EDGE_CURVE ( 'NONE', #32, #77, #143, .T. ) ;
#105 = PERSON_AND_ORGANIZATION_ROLE ( 'classification_officer' ) ;
#106 = COORDINATED_UNIVERSAL_TIME_OFFSET ( 5, 0, .BEHIND. ) ;
#107 = AXIS2_PLACEMENT_3D ( 'NONE', #14, #114, #168 ) ;
#108 = ORIENTED_EDGE ( 'NONE', *, *, #100, .T. ) ;
#109 = APPROVAL ( #119, 'UNSPECIFIED' ) ;
#110 = CC_DESIGN_APPROVAL ( #12, ( #31 ) ) ;
#111 = ADVANCED_FACE ( 'NONE', ( #4 ), #69, .T. ) ;
#112 = CARTESIAN_POINT ( 'NONE',  ( 0.000000000000000000, 0.000000000000000000, 0.000000000000000000 ) ) ;
#113 = CARTESIAN_POINT ( 'NONE',  ( 0.000000000000000000, 0.000000000000000000, 0.000000000000000000 ) ) ;
#114 = DIRECTION ( 'NONE',  ( 0.000000000000000000, 0.000000000000000000, 1.000000000000000000 ) ) ;
#115 = PERSON_AND_ORGANIZATION ( #58, #84 ) ;
#116 = VECTOR ( 'NONE', #164, 1000.000000000000000 ) ;
#117 = FACE_OUTER_BOUND ( 'NONE', #33, .T. ) ;
#118 = ADVANCED_FACE ( 'NONE', ( #117 ), #41, .T. ) ;
#119 = APPROVAL_STATUS ( 'not_yet_approved' ) ;
#120 = DIRECTION ( 'NONE',  ( -0.000000000000000000, -0.000000000000000000, -1.000000000000000000 ) ) ;
#121 = EDGE_LOOP ( 'NONE', ( #34, #6 ) ) ;
#122 = APPLICATION_CONTEXT ( 'configuration controlled 3d designs of mechanical parts and assemblies' ) ;
#123 = DATE_AND_TIME ( #89, #1 ) ;
#124 = DIRECTION ( 'NONE',  ( 0.000000000000000000, 0.000000000000000000, 1.000000000000000000 ) ) ;
#125 = ORIENTED_EDGE ( 'NONE', *, *, #88, .F. ) ;
#126 = AXIS2_PLACEMENT_3D ( 'NONE', #112, #147, #56 ) ;
#127 = APPROVAL ( #140, 'UNSPECIFIED' ) ;
#128 = PRODUCT_DEFINITION_SHAPE ( 'NONE', 'NONE',  #31 ) ;
#129 = CC_DESIGN_PERSON_AND_ORGANIZATION_ASSIGNMENT ( #5, #75, ( #37 ) ) ;
#130 = DIRECTION ( 'NONE',  ( -0.000000000000000000, -0.000000000000000000, -1.000000000000000000 ) ) ;
#131 =( NAMED_UNIT ( * ) PLANE_ANGLE_UNIT ( ) SI_UNIT ( $, .RADIAN. ) );
#132 = DESIGN_CONTEXT ( 'detailed design', #142, 'design' ) ;
#133 = APPROVAL_PERSON_ORGANIZATION ( #148, #109, #170 ) ;
#134 = MANIFOLD_SOLID_BREP ( 'Boss-Extrude1', #136 ) ;
#135 = MECHANICAL_CONTEXT ( 'NONE', #122, 'mechanical' ) ;
#136 = CLOSED_SHELL ( 'NONE', ( #118, #111, #36, #96 ) ) ;
#137 = CARTESIAN_POINT ( 'NONE',  ( 0.000000000000000000, 0.000000000000000000, 2.000000000000000000 ) ) ;
#138 = CC_DESIGN_SECURITY_CLASSIFICATION ( #99, ( #37 ) ) ;
#139 = ORIENTED_EDGE ( 'NONE', *, *, #165, .T. ) ;
#140 = APPROVAL_STATUS ( 'not_yet_approved' ) ;
#141 = DIRECTION ( 'NONE',  ( 1.000000000000000000, 0.000000000000000000, -0.000000000000000000 ) ) ;
#142 = APPLICATION_CONTEXT ( 'configuration controlled 3d designs of mechanical parts and assemblies' ) ;
#143 = CIRCLE ( 'NONE', #51, 10.00000000000000000 ) ;
#144 = CALENDAR_DATE ( 2022, 22, 3 ) ;
#145 = CC_DESIGN_PERSON_AND_ORGANIZATION_ASSIGNMENT ( #146, #101, ( #31 ) ) ;
#146 = PERSON_AND_ORGANIZATION ( #58, #84 ) ;
#147 = DIRECTION ( 'NONE',  ( 0.000000000000000000, 0.000000000000000000, 1.000000000000000000 ) ) ;
#148 = PERSON_AND_ORGANIZATION ( #58, #84 ) ;
#149 = DATE_TIME_ROLE ( 'classification_date' ) ;
#150 = ORIENTED_EDGE ( 'NONE', *, *, #104, .F. ) ;
#151 = APPROVAL_DATE_TIME ( #161, #109 ) ;
#152 = ORIENTED_EDGE ( 'NONE', *, *, #100, .F. ) ;
#153 = LINE ( 'NONE', #23, #63 ) ;
#154 = CC_DESIGN_PERSON_AND_ORGANIZATION_ASSIGNMENT ( #55, #156, ( #10 ) ) ;
#155 = COORDINATED_UNIVERSAL_TIME_OFFSET ( 5, 0, .BEHIND. ) ;
#156 = PERSON_AND_ORGANIZATION_ROLE ( 'design_owner' ) ;
#157 = CC_DESIGN_PERSON_AND_ORGANIZATION_ASSIGNMENT ( #172, #105, ( #99 ) ) ;
#158 = DIRECTION ( 'NONE',  ( 0.000000000000000000, 0.000000000000000000, 1.000000000000000000 ) ) ;
#159 = DIRECTION ( 'NONE',  ( -1.000000000000000000, 0.000000000000000000, 0.000000000000000000 ) ) ;
#160 = PLANE ( 'NONE',  #85 ) ;
#161 = DATE_AND_TIME ( #19, #11 ) ;
#162 = CALENDAR_DATE ( 2022, 22, 3 ) ;
#163 = CIRCLE ( 'NONE', #79, 10.00000000000000000 ) ;
#164 = DIRECTION ( 'NONE',  ( -0.000000000000000000, -0.000000000000000000, -1.000000000000000000 ) ) ;
#165 = EDGE_CURVE ( 'NONE', #103, #47, #95, .T. ) ;
#166 = CIRCLE ( 'NONE', #9, 10.00000000000000000 ) ;
#167 = DIRECTION ( 'NONE',  ( 1.000000000000000000, 0.000000000000000000, -0.000000000000000000 ) ) ;
#168 = DIRECTION ( 'NONE',  ( 1.000000000000000000, 0.000000000000000000, 0.000000000000000000 ) ) ;
#169 = DIRECTION ( 'NONE',  ( 1.000000000000000000, 0.000000000000000000, 0.000000000000000000 ) ) ;
#170 = APPROVAL_ROLE ( '' ) ;
#171 = SHAPE_DEFINITION_REPRESENTATION ( #128, #81 ) ;
#172 = PERSON_AND_ORGANIZATION ( #58, #84 ) ;
#173 = DIRECTION ( 'NONE',  ( 1.000000000000000000, 0.000000000000000000, 0.000000000000000000 ) ) ;
#174 = CARTESIAN_POINT ( 'NONE',  ( 10.00000000000000000, 1.224646799147353256E-15, 0.000000000000000000 ) ) ;
#175 = AXIS2_PLACEMENT_3D ( 'NONE', #68, #18, #159 ) ;
ENDSEC;
END-ISO-10303-21;
