ISO-10303-21;
HEADER;
FILE_DESCRIPTION (( 'STEP AP203' ),
    '1' );
FILE_NAME ('Web Model 45567_20629.step',
    '2022-03-15T17:10:31',
    ( '' ),
    ( '' ),
    'SwSTEP 2.0',
    'SolidWorks 2021',
    '' );
FILE_SCHEMA (( 'CONFIG_CONTROL_DESIGN' ));
ENDSEC;

DATA;
#1 = LOCAL_TIME ( 13, 10, 31.00000000000000000, #107 ) ;
#2 = DATE_AND_TIME ( #113, #138 ) ;
#3 = EDGE_CURVE ( 'NONE', #154, #44, #126, .T. ) ;
#4 = CARTESIAN_POINT ( 'NONE',  ( 3.175000000000001155, 3.888253587292847561E-16, 2.000000000000000000 ) ) ;
#5 = APPROVAL_PERSON_ORGANIZATION ( #66, #142, #45 ) ;
#6 = COORDINATED_UNIVERSAL_TIME_OFFSET ( 5, 0, .BEHIND. ) ;
#7 = APPROVAL_STATUS ( 'not_yet_approved' ) ;
#8 = CARTESIAN_POINT ( 'NONE',  ( 0.000000000000000000, 0.000000000000000000, 2.000000000000000000 ) ) ;
#9 = MECHANICAL_CONTEXT ( 'NONE', #170, 'mechanical' ) ;
#10 = DIRECTION ( 'NONE',  ( -1.000000000000000000, 0.000000000000000000, 0.000000000000000000 ) ) ;
#11 = LOCAL_TIME ( 13, 10, 31.00000000000000000, #6 ) ;
#12 = CIRCLE ( 'NONE', #118, 3.175000000000001155 ) ;
#13 = CC_DESIGN_PERSON_AND_ORGANIZATION_ASSIGNMENT ( #76, #59, ( #26 ) ) ;
#14 = ORIENTED_EDGE ( 'NONE', *, *, #164, .T. ) ;
#15 = ORIENTED_EDGE ( 'NONE', *, *, #97, .F. ) ;
#16 = ORIENTED_EDGE ( 'NONE', *, *, #97, .T. ) ;
#17 = AXIS2_PLACEMENT_3D ( 'NONE', #95, #122, #147 ) ;
#18 = CARTESIAN_POINT ( 'NONE',  ( 0.000000000000000000, 0.000000000000000000, 0.000000000000000000 ) ) ;
#19 = VERTEX_POINT ( 'NONE', #156 ) ;
#20 = APPROVAL_PERSON_ORGANIZATION ( #108, #166, #144 ) ;
#21 = CARTESIAN_POINT ( 'NONE',  ( -3.175000000000001155, 0.000000000000000000, 2.000000000000000000 ) ) ;
#22 = LINE ( 'NONE', #21, #53 ) ;
#23 =( NAMED_UNIT ( * ) SI_UNIT ( $, .STERADIAN. ) SOLID_ANGLE_UNIT ( ) );
#24 = FACE_OUTER_BOUND ( 'NONE', #70, .T. ) ;
#25 = PRODUCT_DEFINITION ( 'UNKNOWN', '', #26, #173 ) ;
#26 = PRODUCT_DEFINITION_FORMATION_WITH_SPECIFIED_SOURCE ( 'ANY', '', #51, .NOT_KNOWN. ) ;
#27 = DIRECTION ( 'NONE',  ( 0.000000000000000000, 0.000000000000000000, 1.000000000000000000 ) ) ;
#28 = AXIS2_PLACEMENT_3D ( 'NONE', #8, #110, #136 ) ;
#29 = EDGE_LOOP ( 'NONE', ( #103, #117, #16, #101 ) ) ;
#30 = EDGE_CURVE ( 'NONE', #167, #154, #42, .T. ) ;
#31 = CARTESIAN_POINT ( 'NONE',  ( 3.175000000000001155, 3.888253587292847561E-16, 0.000000000000000000 ) ) ;
#32 = DATE_AND_TIME ( #158, #1 ) ;
#33 = ORGANIZATION ( 'UNSPECIFIED', 'UNSPECIFIED', '' ) ;
#34 = DIRECTION ( 'NONE',  ( -1.000000000000000000, 0.000000000000000000, 0.000000000000000000 ) ) ;
#35 = APPLICATION_PROTOCOL_DEFINITION ( 'international standard', 'config_control_design', 1994, #170 ) ;
#36 = PERSON_AND_ORGANIZATION ( #131, #33 ) ;
#37 = DIRECTION ( 'NONE',  ( 1.000000000000000000, 0.000000000000000000, 0.000000000000000000 ) ) ;
#38 = CYLINDRICAL_SURFACE ( 'NONE', #52, 3.175000000000001155 ) ;
#39 = MANIFOLD_SOLID_BREP ( 'Boss-Extrude1', #85 ) ;
#40 = APPROVAL_STATUS ( 'not_yet_approved' ) ;
#41 = AXIS2_PLACEMENT_3D ( 'NONE', #168, #143, #57 ) ;
#42 = CIRCLE ( 'NONE', #41, 3.175000000000001155 ) ;
#43 = ADVANCED_FACE ( 'NONE', ( #116 ), #127, .F. ) ;
#44 = VERTEX_POINT ( 'NONE', #31 ) ;
#45 = APPROVAL_ROLE ( '' ) ;
#46 = CALENDAR_DATE ( 2022, 15, 3 ) ;
#47 = PRODUCT_DEFINITION_SHAPE ( 'NONE', 'NONE',  #25 ) ;
#48 = CARTESIAN_POINT ( 'NONE',  ( 0.000000000000000000, 0.000000000000000000, 2.000000000000000000 ) ) ;
#49 =( GEOMETRIC_REPRESENTATION_CONTEXT ( 3 ) GLOBAL_UNCERTAINTY_ASSIGNED_CONTEXT ( ( #159 ) ) GLOBAL_UNIT_ASSIGNED_CONTEXT ( ( #124, #112, #23 ) ) REPRESENTATION_CONTEXT ( 'NONE', 'WORKASPACE' ) );
#50 = DATE_TIME_ROLE ( 'creation_date' ) ;
#51 = PRODUCT ( 'Web Model 45567_20629', 'Web Model 45567_20629', '', ( #9 ) ) ;
#52 = AXIS2_PLACEMENT_3D ( 'NONE', #146, #174, #34 ) ;
#53 = VECTOR ( 'NONE', #130, 1000.000000000000000 ) ;
#54 = APPROVAL ( #40, 'UNSPECIFIED' ) ;
#55 = APPROVAL_PERSON_ORGANIZATION ( #163, #54, #132 ) ;
#56 = ORIENTED_EDGE ( 'NONE', *, *, #65, .F. ) ;
#57 = DIRECTION ( 'NONE',  ( 1.000000000000000000, 0.000000000000000000, 0.000000000000000000 ) ) ;
#58 = LOCAL_TIME ( 13, 10, 31.00000000000000000, #119 ) ;
#59 = PERSON_AND_ORGANIZATION_ROLE ( 'design_supplier' ) ;
#60 = CYLINDRICAL_SURFACE ( 'NONE', #79, 3.175000000000001155 ) ;
#61 = SECURITY_CLASSIFICATION_LEVEL ( 'unclassified' ) ;
#62 = FACE_OUTER_BOUND ( 'NONE', #29, .T. ) ;
#63 = APPLICATION_PROTOCOL_DEFINITION ( 'international standard', 'config_control_design', 1994, #68 ) ;
#64 = CARTESIAN_POINT ( 'NONE',  ( 0.000000000000000000, 0.000000000000000000, 0.000000000000000000 ) ) ;
#65 = EDGE_CURVE ( 'NONE', #19, #44, #12, .T. ) ;
#66 = PERSON_AND_ORGANIZATION ( #131, #33 ) ;
#67 = CIRCLE ( 'NONE', #17, 3.175000000000001155 ) ;
#68 = APPLICATION_CONTEXT ( 'configuration controlled 3d designs of mechanical parts and assemblies' ) ;
#69 = DIRECTION ( 'NONE',  ( -0.000000000000000000, -0.000000000000000000, -1.000000000000000000 ) ) ;
#70 = EDGE_LOOP ( 'NONE', ( #87, #169 ) ) ;
#71 = DIRECTION ( 'NONE',  ( 1.000000000000000000, 0.000000000000000000, -0.000000000000000000 ) ) ;
#72 = CARTESIAN_POINT ( 'NONE',  ( 0.000000000000000000, 0.000000000000000000, 0.000000000000000000 ) ) ;
#73 = DATE_AND_TIME ( #94, #58 ) ;
#74 = CARTESIAN_POINT ( 'NONE',  ( 3.175000000000001155, 3.888253587292847561E-16, 2.000000000000000000 ) ) ;
#75 = PERSON_AND_ORGANIZATION ( #131, #33 ) ;
#76 = PERSON_AND_ORGANIZATION ( #131, #33 ) ;
#77 = ADVANCED_FACE ( 'NONE', ( #62 ), #38, .T. ) ;
#78 = DIRECTION ( 'NONE',  ( 1.000000000000000000, 0.000000000000000000, 0.000000000000000000 ) ) ;
#79 = AXIS2_PLACEMENT_3D ( 'NONE', #48, #175, #10 ) ;
#80 = DIRECTION ( 'NONE',  ( 0.000000000000000000, 0.000000000000000000, 1.000000000000000000 ) ) ;
#81 = ADVANCED_BREP_SHAPE_REPRESENTATION ( 'Web Model 45567_20629', ( #39, #152 ), #49 ) ;
#82 = CC_DESIGN_DATE_AND_TIME_ASSIGNMENT ( #73, #129, ( #99 ) ) ;
#83 = CC_DESIGN_SECURITY_CLASSIFICATION ( #99, ( #26 ) ) ;
#84 = ADVANCED_FACE ( 'NONE', ( #24 ), #160, .T. ) ;
#85 = CLOSED_SHELL ( 'NONE', ( #77, #106, #84, #43 ) ) ;
#86 = ORIENTED_EDGE ( 'NONE', *, *, #3, .F. ) ;
#87 = ORIENTED_EDGE ( 'NONE', *, *, #30, .T. ) ;
#88 = CALENDAR_DATE ( 2022, 15, 3 ) ;
#89 = APPROVAL_DATE_TIME ( #32, #142 ) ;
#90 = CC_DESIGN_DATE_AND_TIME_ASSIGNMENT ( #2, #50, ( #25 ) ) ;
#91 = PERSON_AND_ORGANIZATION_ROLE ( 'creator' ) ;
#92 = EDGE_CURVE ( 'NONE', #154, #167, #67, .T. ) ;
#93 = PERSON_AND_ORGANIZATION_ROLE ( 'design_owner' ) ;
#94 = CALENDAR_DATE ( 2022, 15, 3 ) ;
#95 = CARTESIAN_POINT ( 'NONE',  ( 0.000000000000000000, 0.000000000000000000, 2.000000000000000000 ) ) ;
#96 = COORDINATED_UNIVERSAL_TIME_OFFSET ( 5, 0, .BEHIND. ) ;
#97 = EDGE_CURVE ( 'NONE', #44, #19, #141, .T. ) ;
#98 = CC_DESIGN_PERSON_AND_ORGANIZATION_ASSIGNMENT ( #148, #93, ( #51 ) ) ;
#99 = SECURITY_CLASSIFICATION ( '', '', #61 ) ;
#100 = CC_DESIGN_PERSON_AND_ORGANIZATION_ASSIGNMENT ( #111, #171, ( #99 ) ) ;
#101 = ORIENTED_EDGE ( 'NONE', *, *, #164, .F. ) ;
#102 = AXIS2_PLACEMENT_3D ( 'NONE', #18, #27, #71 ) ;
#103 = ORIENTED_EDGE ( 'NONE', *, *, #92, .F. ) ;
#104 = DATE_AND_TIME ( #46, #11 ) ;
#105 = CC_DESIGN_PERSON_AND_ORGANIZATION_ASSIGNMENT ( #36, #91, ( #26 ) ) ;
#106 = ADVANCED_FACE ( 'NONE', ( #137 ), #60, .T. ) ;
#107 = COORDINATED_UNIVERSAL_TIME_OFFSET ( 5, 0, .BEHIND. ) ;
#108 = PERSON_AND_ORGANIZATION ( #131, #33 ) ;
#109 = DIRECTION ( 'NONE',  ( 0.000000000000000000, 0.000000000000000000, 1.000000000000000000 ) ) ;
#110 = DIRECTION ( 'NONE',  ( 0.000000000000000000, 0.000000000000000000, 1.000000000000000000 ) ) ;
#111 = PERSON_AND_ORGANIZATION ( #131, #33 ) ;
#112 =( NAMED_UNIT ( * ) PLANE_ANGLE_UNIT ( ) SI_UNIT ( $, .RADIAN. ) );
#113 = CALENDAR_DATE ( 2022, 15, 3 ) ;
#114 = AXIS2_PLACEMENT_3D ( 'NONE', #120, #172, #134 ) ;
#115 = ORIENTED_EDGE ( 'NONE', *, *, #30, .F. ) ;
#116 = FACE_OUTER_BOUND ( 'NONE', #140, .T. ) ;
#117 = ORIENTED_EDGE ( 'NONE', *, *, #3, .T. ) ;
#118 = AXIS2_PLACEMENT_3D ( 'NONE', #72, #80, #37 ) ;
#119 = COORDINATED_UNIVERSAL_TIME_OFFSET ( 5, 0, .BEHIND. ) ;
#120 = CARTESIAN_POINT ( 'NONE',  ( 0.000000000000000000, 0.000000000000000000, 0.000000000000000000 ) ) ;
#121 = APPROVAL_DATE_TIME ( #135, #54 ) ;
#122 = DIRECTION ( 'NONE',  ( 0.000000000000000000, 0.000000000000000000, 1.000000000000000000 ) ) ;
#123 = APPROVAL_DATE_TIME ( #104, #166 ) ;
#124 =( LENGTH_UNIT ( ) NAMED_UNIT ( * ) SI_UNIT ( .MILLI., .METRE. ) );
#125 = APPROVAL_STATUS ( 'not_yet_approved' ) ;
#126 = LINE ( 'NONE', #4, #153 ) ;
#127 = PLANE ( 'NONE',  #102 ) ;
#128 = CC_DESIGN_PERSON_AND_ORGANIZATION_ASSIGNMENT ( #75, #133, ( #25 ) ) ;
#129 = DATE_TIME_ROLE ( 'classification_date' ) ;
#130 = DIRECTION ( 'NONE',  ( -0.000000000000000000, -0.000000000000000000, -1.000000000000000000 ) ) ;
#131 = PERSON ( 'UNSPECIFIED', 'UNSPECIFIED', 'UNSPECIFIED', ('UNSPECIFIED'), ('UNSPECIFIED'), ('UNSPECIFIED') ) ;
#132 = APPROVAL_ROLE ( '' ) ;
#133 = PERSON_AND_ORGANIZATION_ROLE ( 'creator' ) ;
#134 = DIRECTION ( 'NONE',  ( 1.000000000000000000, 0.000000000000000000, 0.000000000000000000 ) ) ;
#135 = DATE_AND_TIME ( #88, #139 ) ;
#136 = DIRECTION ( 'NONE',  ( 1.000000000000000000, 0.000000000000000000, -0.000000000000000000 ) ) ;
#137 = FACE_OUTER_BOUND ( 'NONE', #157, .T. ) ;
#138 = LOCAL_TIME ( 13, 10, 31.00000000000000000, #96 ) ;
#139 = LOCAL_TIME ( 13, 10, 31.00000000000000000, #161 ) ;
#140 = EDGE_LOOP ( 'NONE', ( #56, #15 ) ) ;
#141 = CIRCLE ( 'NONE', #114, 3.175000000000001155 ) ;
#142 = APPROVAL ( #125, 'UNSPECIFIED' ) ;
#143 = DIRECTION ( 'NONE',  ( 0.000000000000000000, 0.000000000000000000, 1.000000000000000000 ) ) ;
#144 = APPROVAL_ROLE ( '' ) ;
#145 = CC_DESIGN_APPROVAL ( #142, ( #25 ) ) ;
#146 = CARTESIAN_POINT ( 'NONE',  ( 0.000000000000000000, 0.000000000000000000, 2.000000000000000000 ) ) ;
#147 = DIRECTION ( 'NONE',  ( 1.000000000000000000, 0.000000000000000000, 0.000000000000000000 ) ) ;
#148 = PERSON_AND_ORGANIZATION ( #131, #33 ) ;
#149 = SHAPE_DEFINITION_REPRESENTATION ( #47, #81 ) ;
#150 = PRODUCT_RELATED_PRODUCT_CATEGORY ( 'detail', '', ( #51 ) ) ;
#151 = CARTESIAN_POINT ( 'NONE',  ( -3.175000000000001155, 0.000000000000000000, 2.000000000000000000 ) ) ;
#152 = AXIS2_PLACEMENT_3D ( 'NONE', #64, #109, #78 ) ;
#153 = VECTOR ( 'NONE', #69, 1000.000000000000000 ) ;
#154 = VERTEX_POINT ( 'NONE', #74 ) ;
#155 = ORIENTED_EDGE ( 'NONE', *, *, #65, .T. ) ;
#156 = CARTESIAN_POINT ( 'NONE',  ( -3.175000000000001155, 0.000000000000000000, 0.000000000000000000 ) ) ;
#157 = EDGE_LOOP ( 'NONE', ( #86, #115, #14, #155 ) ) ;
#158 = CALENDAR_DATE ( 2022, 15, 3 ) ;
#159 = UNCERTAINTY_MEASURE_WITH_UNIT (LENGTH_MEASURE( 1.000000000000000082E-05 ), #124, 'distance_accuracy_value', 'NONE');
#160 = PLANE ( 'NONE',  #28 ) ;
#161 = COORDINATED_UNIVERSAL_TIME_OFFSET ( 5, 0, .BEHIND. ) ;
#162 = CC_DESIGN_APPROVAL ( #166, ( #99 ) ) ;
#163 = PERSON_AND_ORGANIZATION ( #131, #33 ) ;
#164 = EDGE_CURVE ( 'NONE', #167, #19, #22, .T. ) ;
#165 = CC_DESIGN_APPROVAL ( #54, ( #26 ) ) ;
#166 = APPROVAL ( #7, 'UNSPECIFIED' ) ;
#167 = VERTEX_POINT ( 'NONE', #151 ) ;
#168 = CARTESIAN_POINT ( 'NONE',  ( 0.000000000000000000, 0.000000000000000000, 2.000000000000000000 ) ) ;
#169 = ORIENTED_EDGE ( 'NONE', *, *, #92, .T. ) ;
#170 = APPLICATION_CONTEXT ( 'configuration controlled 3d designs of mechanical parts and assemblies' ) ;
#171 = PERSON_AND_ORGANIZATION_ROLE ( 'classification_officer' ) ;
#172 = DIRECTION ( 'NONE',  ( 0.000000000000000000, 0.000000000000000000, 1.000000000000000000 ) ) ;
#173 = DESIGN_CONTEXT ( 'detailed design', #68, 'design' ) ;
#174 = DIRECTION ( 'NONE',  ( -0.000000000000000000, -0.000000000000000000, -1.000000000000000000 ) ) ;
#175 = DIRECTION ( 'NONE',  ( -0.000000000000000000, -0.000000000000000000, -1.000000000000000000 ) ) ;
ENDSEC;
END-ISO-10303-21;
