ISO-10303-21;
HEADER;
FILE_DESCRIPTION (( 'STEP AP203' ),
    '1' );
FILE_NAME ('4287-E0W.STEP',
    '2015-05-29T14:22:35',
    ( 'admin' ),
    ( '' ),
    'SwSTEP 2.0',
    'SolidWorks 2014',
    '' );
FILE_SCHEMA (( 'CONFIG_CONTROL_DESIGN' ));
ENDSEC;

DATA;
#1 = PERSON_AND_ORGANIZATION ( #118, #181 ) ;
#2 = VERTEX_POINT ( 'NONE', #35 ) ;
#3 = CARTESIAN_POINT ( 'NONE',  ( -1.350000000000000100, 0.0000000000000000000, -12.44999999999999800 ) ) ;
#4 = DIRECTION ( 'NONE',  ( 1.000000000000000000, 0.0000000000000000000, 0.0000000000000000000 ) ) ;
#5 = CIRCLE ( 'NONE', #204, 12.69999999999999400 ) ;
#6 = CARTESIAN_POINT ( 'NONE',  ( 0.3999999999999698200, 1.555301434917138000E-015, -12.69999999999999400 ) ) ;
#7 = AXIS2_PLACEMENT_3D ( 'NONE', #130, #240, #152 ) ;
#8 = APPROVAL_PERSON_ORGANIZATION ( #1, #236, #44 ) ;
#9 = DIRECTION ( 'NONE',  ( -1.000000000000000000, -0.0000000000000000000, -0.0000000000000000000 ) ) ;
#10 = EDGE_LOOP ( 'NONE', ( #99, #161, #136 ) ) ;
#11 = COORDINATED_UNIVERSAL_TIME_OFFSET ( 5, 0, .BEHIND. ) ;
#12 = CARTESIAN_POINT ( 'NONE',  ( -1.350000000000000100, 0.0000000000000000000, 0.0000000000000000000 ) ) ;
#13 = EDGE_LOOP ( 'NONE', ( #270, #23, #186, #297 ) ) ;
#14 = DIRECTION ( 'NONE',  ( 1.000000000000000000, 0.0000000000000000000, 0.0000000000000000000 ) ) ;
#15 = DIRECTION ( 'NONE',  ( 0.0000000000000000000, 0.0000000000000000000, -1.000000000000000000 ) ) ;
#16 = APPROVAL_STATUS ( 'not_yet_approved' ) ;
#17 = AXIS2_PLACEMENT_3D ( 'NONE', #273, #225, #107 ) ;
#18 = EDGE_CURVE ( 'NONE', #2, #70, #167, .T. ) ;
#19 = CONICAL_SURFACE ( 'NONE', #289, 12.44999999999999800, 0.7853981633974447300 ) ;
#20 = CARTESIAN_POINT ( 'NONE',  ( 0.3999999999999698200, 0.0000000000000000000, 0.0000000000000000000 ) ) ;
#21 = EDGE_CURVE ( 'NONE', #220, #213, #5, .T. ) ;
#22 = PERSON_AND_ORGANIZATION ( #118, #181 ) ;
#23 = ORIENTED_EDGE ( 'NONE', *, *, #171, .F. ) ;
#24 = ORIENTED_EDGE ( 'NONE', *, *, #233, .T. ) ;
#25 = DIRECTION ( 'NONE',  ( 0.0000000000000000000, 0.0000000000000000000, 1.000000000000000000 ) ) ;
#26 = DIRECTION ( 'NONE',  ( -1.000000000000000000, -0.0000000000000000000, -0.0000000000000000000 ) ) ;
#27 = AXIS2_PLACEMENT_3D ( 'NONE', #253, #180, #229 ) ;
#28 = ADVANCED_FACE ( 'NONE', ( #60 ), #144, .T. ) ;
#29 = APPLICATION_CONTEXT ( 'configuration controlled 3d designs of mechanical parts and assemblies' ) ;
#30 = PERSON_AND_ORGANIZATION ( #118, #181 ) ;
#31 = FACE_OUTER_BOUND ( 'NONE', #91, .T. ) ;
#32 = CARTESIAN_POINT ( 'NONE',  ( -1.350000000000000100, 1.555301434917138000E-015, -12.69999999999999400 ) ) ;
#33 = DIRECTION ( 'NONE',  ( 0.7071067811865500200, 8.659560562354904500E-017, 0.7071067811865451300 ) ) ;
#34 = EDGE_LOOP ( 'NONE', ( #234, #51, #264, #205 ) ) ;
#35 = CARTESIAN_POINT ( 'NONE',  ( 0.6772391480640016500, 1.524904823248308000E-015, -12.45179282965509800 ) ) ;
#36 = MECHANICAL_CONTEXT ( 'NONE', #249, 'mechanical' ) ;
#37 = DIRECTION ( 'NONE',  ( 1.000000000000000000, 0.0000000000000000000, 0.0000000000000000000 ) ) ;
#38 = DIRECTION ( 'NONE',  ( 0.0000000000000000000, 0.0000000000000000000, 1.000000000000000000 ) ) ;
#39 = SECURITY_CLASSIFICATION ( '', '', #298 ) ;
#40 = DIRECTION ( 'NONE',  ( -1.000000000000000000, -0.0000000000000000000, -0.0000000000000000000 ) ) ;
#41 = ORIENTED_EDGE ( 'NONE', *, *, #21, .T. ) ;
#42 = DATE_AND_TIME ( #286, #290 ) ;
#43 = EDGE_CURVE ( 'NONE', #213, #220, #227, .T. ) ;
#44 = APPROVAL_ROLE ( '' ) ;
#45 = PERSON_AND_ORGANIZATION_ROLE ( 'design_supplier' ) ;
#46 = CC_DESIGN_PERSON_AND_ORGANIZATION_ASSIGNMENT ( #22, #114, ( #207 ) ) ;
#47 = CIRCLE ( 'NONE', #237, 12.44999999999999800 ) ;
#48 = EDGE_LOOP ( 'NONE', ( #296, #250, #241, #116 ) ) ;
#49 = EDGE_CURVE ( 'NONE', #70, #189, #247, .T. ) ;
#50 = MANIFOLD_SOLID_BREP ( '4287-001-1-solid1', #235 ) ;
#51 = ORIENTED_EDGE ( 'NONE', *, *, #98, .F. ) ;
#52 = APPROVAL_DATE_TIME ( #64, #92 ) ;
#53 = CALENDAR_DATE ( 2015, 29, 5 ) ;
#54 = VERTEX_POINT ( 'NONE', #76 ) ;
#55 = CARTESIAN_POINT ( 'NONE',  ( -1.100000000000001600, 0.0000000000000000000, 12.69999999999999400 ) ) ;
#56 = LOCAL_TIME ( 10, 22, 35.00000000000000000, #149 ) ;
#57 = AXIS2_PLACEMENT_3D ( 'NONE', #214, #97, #170 ) ;
#58 = DIRECTION ( 'NONE',  ( 0.0000000000000000000, 0.0000000000000000000, 1.000000000000000000 ) ) ;
#59 =( NAMED_UNIT ( * ) SI_UNIT ( $, .STERADIAN. ) SOLID_ANGLE_UNIT ( ) );
#60 = FACE_OUTER_BOUND ( 'NONE', #199, .T. ) ;
#61 = CARTESIAN_POINT ( 'NONE',  ( 0.3999999999999698200, 0.0000000000000000000, 12.69999999999999400 ) ) ;
#62 = CARTESIAN_POINT ( 'NONE',  ( -1.100000000000001600, 0.0000000000000000000, 0.0000000000000000000 ) ) ;
#63 = DATE_AND_TIME ( #53, #56 ) ;
#64 = DATE_AND_TIME ( #74, #79 ) ;
#65 = ADVANCED_FACE ( 'NONE', ( #78 ), #158, .T. ) ;
#66 = ORIENTED_EDGE ( 'NONE', *, *, #98, .T. ) ;
#67 = PERSON_AND_ORGANIZATION ( #118, #181 ) ;
#68 = COORDINATED_UNIVERSAL_TIME_OFFSET ( 5, 0, .BEHIND. ) ;
#69 = DATE_AND_TIME ( #90, #188 ) ;
#70 = VERTEX_POINT ( 'NONE', #255 ) ;
#71 = ORIENTED_EDGE ( 'NONE', *, *, #246, .T. ) ;
#72 = CARTESIAN_POINT ( 'NONE',  ( 0.3999999999999698200, 1.555301434917138000E-015, -12.69999999999999400 ) ) ;
#73 = EDGE_CURVE ( 'NONE', #160, #213, #166, .T. ) ;
#74 = CALENDAR_DATE ( 2015, 29, 5 ) ;
#75 = ORIENTED_EDGE ( 'NONE', *, *, #73, .T. ) ;
#76 = CARTESIAN_POINT ( 'NONE',  ( -1.350000000000000100, 1.539993349927796300E-015, 12.44999999999999800 ) ) ;
#77 = DIRECTION ( 'NONE',  ( 0.0000000000000000000, 0.0000000000000000000, -1.000000000000000000 ) ) ;
#78 = FACE_OUTER_BOUND ( 'NONE', #111, .T. ) ;
#79 = LOCAL_TIME ( 10, 22, 35.00000000000000000, #86 ) ;
#80 = CARTESIAN_POINT ( 'NONE',  ( -1.100000000000001600, 0.0000000000000000000, 0.0000000000000000000 ) ) ;
#81 = AXIS2_PLACEMENT_3D ( 'NONE', #141, #140, #252 ) ;
#82 = CARTESIAN_POINT ( 'NONE',  ( -1.350000000000000100, 0.0000000000000000000, 0.0000000000000000000 ) ) ;
#83 = FACE_OUTER_BOUND ( 'NONE', #34, .T. ) ;
#84 = EDGE_LOOP ( 'NONE', ( #276, #108, #228, #41 ) ) ;
#85 = ADVANCED_BREP_SHAPE_REPRESENTATION ( '4287-E0W', ( #50, #294 ), #216 ) ;
#86 = COORDINATED_UNIVERSAL_TIME_OFFSET ( 5, 0, .BEHIND. ) ;
#87 = CONICAL_SURFACE ( 'NONE', #102, 12.69999999999999400, 0.7302022511204081500 ) ;
#88 = DIRECTION ( 'NONE',  ( 0.0000000000000000000, 0.0000000000000000000, -1.000000000000000000 ) ) ;
#89 = DIRECTION ( 'NONE',  ( 1.000000000000000000, 0.0000000000000000000, 0.0000000000000000000 ) ) ;
#90 = CALENDAR_DATE ( 2015, 29, 5 ) ;
#91 = EDGE_LOOP ( 'NONE', ( #117, #281 ) ) ;
#92 = APPROVAL ( #147, 'UNSPECIFIED' ) ;
#93 = COORDINATED_UNIVERSAL_TIME_OFFSET ( 5, 0, .BEHIND. ) ;
#94 = VECTOR ( 'NONE', #198, 1000.000000000000100 ) ;
#95 = CARTESIAN_POINT ( 'NONE',  ( -1.350000000000000100, 0.0000000000000000000, 0.0000000000000000000 ) ) ;
#96 = ORIENTED_EDGE ( 'NONE', *, *, #43, .T. ) ;
#97 = DIRECTION ( 'NONE',  ( -0.0000000000000000000, 1.000000000000000000, 1.224646799147353200E-016 ) ) ;
#98 = EDGE_CURVE ( 'NONE', #70, #2, #165, .T. ) ;
#99 = ORIENTED_EDGE ( 'NONE', *, *, #233, .F. ) ;
#100 = PRODUCT_RELATED_PRODUCT_CATEGORY ( 'detail', '', ( #174 ) ) ;
#101 = DIRECTION ( 'NONE',  ( 0.0000000000000000000, 0.0000000000000000000, -1.000000000000000000 ) ) ;
#102 = AXIS2_PLACEMENT_3D ( 'NONE', #230, #26, #163 ) ;
#103 = CARTESIAN_POINT ( 'NONE',  ( -113.6499958998444300, 0.0000000000000000000, 0.03070888741014792000 ) ) ;
#104 = CONICAL_SURFACE ( 'NONE', #282, 12.69999999999999400, 0.7302022511204081500 ) ;
#105 = CC_DESIGN_APPROVAL ( #92, ( #207 ) ) ;
#106 = ORIENTED_EDGE ( 'NONE', *, *, #238, .T. ) ;
#107 = DIRECTION ( 'NONE',  ( 0.0000000000000000000, 0.0000000000000000000, 1.000000000000000000 ) ) ;
#108 = ORIENTED_EDGE ( 'NONE', *, *, #169, .T. ) ;
#109 = DIRECTION ( 'NONE',  ( -0.7450395119740727000, 0.0000000000000000000, 0.6670203337211209100 ) ) ;
#110 = CYLINDRICAL_SURFACE ( 'NONE', #27, 12.69999999999999400 ) ;
#111 = EDGE_LOOP ( 'NONE', ( #71, #75, #96, #271 ) ) ;
#112 = CIRCLE ( 'NONE', #17, 12.69999999999999400 ) ;
#113 = CC_DESIGN_APPROVAL ( #236, ( #39 ) ) ;
#114 = PERSON_AND_ORGANIZATION_ROLE ( 'creator' ) ;
#115 = APPROVAL_DATE_TIME ( #42, #159 ) ;
#116 = ORIENTED_EDGE ( 'NONE', *, *, #272, .F. ) ;
#117 = ORIENTED_EDGE ( 'NONE', *, *, #171, .T. ) ;
#118 = PERSON ( 'UNSPECIFIED', 'UNSPECIFIED', 'UNSPECIFIED', ('UNSPECIFIED'), ('UNSPECIFIED'), ('UNSPECIFIED') ) ;
#119 = AXIS2_PLACEMENT_3D ( 'NONE', #82, #222, #58 ) ;
#120 = CC_DESIGN_PERSON_AND_ORGANIZATION_ASSIGNMENT ( #135, #231, ( #179 ) ) ;
#121 = AXIS2_PLACEMENT_3D ( 'NONE', #95, #277, #127 ) ;
#122 = CARTESIAN_POINT ( 'NONE',  ( -1.350000000000000100, 1.524685264938454400E-015, 12.44999999999999800 ) ) ;
#123 = UNCERTAINTY_MEASURE_WITH_UNIT (LENGTH_MEASURE( 1.000000000000000100E-005 ), #193, 'distance_accuracy_value', 'NONE');
#124 = DATE_TIME_ROLE ( 'creation_date' ) ;
#125 = APPLICATION_PROTOCOL_DEFINITION ( 'international standard', 'config_control_design', 1994, #249 ) ;
#126 = APPROVAL_ROLE ( '' ) ;
#127 = DIRECTION ( 'NONE',  ( 0.0000000000000000000, 0.0000000000000000000, -1.000000000000000000 ) ) ;
#128 = VERTEX_POINT ( 'NONE', #243 ) ;
#129 = ORIENTED_EDGE ( 'NONE', *, *, #18, .F. ) ;
#130 = CARTESIAN_POINT ( 'NONE',  ( -113.6499958998444300, 0.0000000000000000000, 0.0000000000000000000 ) ) ;
#131 = DIRECTION ( 'NONE',  ( 1.000000000000000000, 0.0000000000000000000, 0.0000000000000000000 ) ) ;
#132 = CC_DESIGN_PERSON_AND_ORGANIZATION_ASSIGNMENT ( #67, #142, ( #39 ) ) ;
#133 = CARTESIAN_POINT ( 'NONE',  ( 0.6772391480640016500, 0.0000000000000000000, 0.0000000000000000000 ) ) ;
#134 =( NAMED_UNIT ( * ) PLANE_ANGLE_UNIT ( ) SI_UNIT ( $, .RADIAN. ) );
#135 = PERSON_AND_ORGANIZATION ( #118, #181 ) ;
#136 = ORIENTED_EDGE ( 'NONE', *, *, #18, .T. ) ;
#137 = AXIS2_PLACEMENT_3D ( 'NONE', #103, #190, #88 ) ;
#138 = LINE ( 'NONE', #261, #242 ) ;
#139 = ORIENTED_EDGE ( 'NONE', *, *, #49, .F. ) ;
#140 = DIRECTION ( 'NONE',  ( -1.000000000000000000, -0.0000000000000000000, -0.0000000000000000000 ) ) ;
#141 = CARTESIAN_POINT ( 'NONE',  ( -113.6499958998444300, 0.0000000000000000000, 0.0000000000000000000 ) ) ;
#142 = PERSON_AND_ORGANIZATION_ROLE ( 'classification_officer' ) ;
#143 = DIRECTION ( 'NONE',  ( 1.000000000000000000, 0.0000000000000000000, 0.0000000000000000000 ) ) ;
#144 = TOROIDAL_SURFACE ( 'NONE', #81, 0.03070888741014792000, 114.9999999999999900 ) ;
#145 = ADVANCED_FACE ( 'NONE', ( #219 ), #19, .T. ) ;
#146 = APPROVAL_STATUS ( 'not_yet_approved' ) ;
#147 = APPROVAL_STATUS ( 'not_yet_approved' ) ;
#148 = DIRECTION ( 'NONE',  ( 0.0000000000000000000, 0.0000000000000000000, -1.000000000000000000 ) ) ;
#149 = COORDINATED_UNIVERSAL_TIME_OFFSET ( 5, 0, .BEHIND. ) ;
#150 = CIRCLE ( 'NONE', #226, 12.44999999999999800 ) ;
#151 = ADVANCED_FACE ( 'NONE', ( #31 ), #201, .F. ) ;
#152 = DIRECTION ( 'NONE',  ( 0.0000000000000000000, 0.0000000000000000000, 1.000000000000000000 ) ) ;
#153 = DATE_TIME_ROLE ( 'classification_date' ) ;
#154 = CC_DESIGN_DATE_AND_TIME_ASSIGNMENT ( #221, #124, ( #207 ) ) ;
#155 = CARTESIAN_POINT ( 'NONE',  ( 0.3999999999999698200, 0.0000000000000000000, 12.69999999999999400 ) ) ;
#156 = CIRCLE ( 'NONE', #256, 12.69999999999999400 ) ;
#157 = VECTOR ( 'NONE', #109, 1000.000000000000100 ) ;
#158 = CYLINDRICAL_SURFACE ( 'NONE', #119, 12.69999999999999400 ) ;
#159 = APPROVAL ( #16, 'UNSPECIFIED' ) ;
#160 = VERTEX_POINT ( 'NONE', #72 ) ;
#161 = ORIENTED_EDGE ( 'NONE', *, *, #185, .T. ) ;
#162 = CIRCLE ( 'NONE', #57, 114.9999999999999900 ) ;
#163 = DIRECTION ( 'NONE',  ( 0.0000000000000000000, 0.0000000000000000000, 1.000000000000000000 ) ) ;
#164 = DIRECTION ( 'NONE',  ( 0.0000000000000000000, 0.0000000000000000000, -1.000000000000000000 ) ) ;
#165 = CIRCLE ( 'NONE', #292, 12.45179282965508200 ) ;
#166 = LINE ( 'NONE', #32, #291 ) ;
#167 = CIRCLE ( 'NONE', #196, 12.45179282965508200 ) ;
#168 = PRODUCT_DEFINITION_SHAPE ( 'NONE', 'NONE',  #207 ) ;
#169 = EDGE_CURVE ( 'NONE', #160, #189, #112, .T. ) ;
#170 = DIRECTION ( 'NONE',  ( 0.0000000000000000000, -1.224646799147353200E-016, 1.000000000000000000 ) ) ;
#171 = EDGE_CURVE ( 'NONE', #128, #54, #47, .T. ) ;
#172 = LINE ( 'NONE', #6, #177 ) ;
#173 = CIRCLE ( 'NONE', #137, 114.9999999999999900 ) ;
#174 = PRODUCT ( '4287-E0W', '4287-E0W', '', ( #36 ) ) ;
#175 = APPLICATION_PROTOCOL_DEFINITION ( 'international standard', 'config_control_design', 1994, #29 ) ;
#176 = LOCAL_TIME ( 10, 22, 35.00000000000000000, #11 ) ;
#177 = VECTOR ( 'NONE', #239, 1000.000000000000100 ) ;
#178 = APPROVAL_ROLE ( '' ) ;
#179 = PRODUCT_DEFINITION_FORMATION_WITH_SPECIFIED_SOURCE ( 'ANY', '', #174, .NOT_KNOWN. ) ;
#180 = DIRECTION ( 'NONE',  ( -1.000000000000000000, -0.0000000000000000000, -0.0000000000000000000 ) ) ;
#181 = ORGANIZATION ( 'UNSPECIFIED', 'UNSPECIFIED', '' ) ;
#182 = CARTESIAN_POINT ( 'NONE',  ( -1.350000000000000100, 0.0000000000000000000, 0.0000000000000000000 ) ) ;
#183 = VECTOR ( 'NONE', #33, 1000.000000000000100 ) ;
#184 = DIRECTION ( 'NONE',  ( 0.0000000000000000000, 0.0000000000000000000, -1.000000000000000000 ) ) ;
#185 = EDGE_CURVE ( 'NONE', #200, #2, #162, .T. ) ;
#186 = ORIENTED_EDGE ( 'NONE', *, *, #272, .T. ) ;
#187 = CALENDAR_DATE ( 2015, 29, 5 ) ;
#188 = LOCAL_TIME ( 10, 22, 35.00000000000000000, #93 ) ;
#189 = VERTEX_POINT ( 'NONE', #61 ) ;
#190 = DIRECTION ( 'NONE',  ( 0.0000000000000000000, -1.000000000000000000, 0.0000000000000000000 ) ) ;
#191 = ADVANCED_FACE ( 'NONE', ( #83 ), #87, .T. ) ;
#192 = APPROVAL_DATE_TIME ( #69, #236 ) ;
#193 =( LENGTH_UNIT ( ) NAMED_UNIT ( * ) SI_UNIT ( .MILLI., .METRE. ) );
#194 = APPROVAL_PERSON_ORGANIZATION ( #203, #159, #178 ) ;
#195 = ADVANCED_FACE ( 'NONE', ( #299 ), #293, .T. ) ;
#196 = AXIS2_PLACEMENT_3D ( 'NONE', #217, #14, #245 ) ;
#197 = ADVANCED_FACE ( 'NONE', ( #258 ), #104, .T. ) ;
#198 = DIRECTION ( 'NONE',  ( 0.7071067811865500200, 0.0000000000000000000, -0.7071067811865451300 ) ) ;
#199 = EDGE_LOOP ( 'NONE', ( #254, #24, #66 ) ) ;
#200 = VERTEX_POINT ( 'NONE', #208 ) ;
#201 = PLANE ( 'NONE',  #121 ) ;
#202 = CC_DESIGN_SECURITY_CLASSIFICATION ( #39, ( #179 ) ) ;
#203 = PERSON_AND_ORGANIZATION ( #118, #181 ) ;
#204 = AXIS2_PLACEMENT_3D ( 'NONE', #62, #143, #101 ) ;
#205 = ORIENTED_EDGE ( 'NONE', *, *, #169, .F. ) ;
#206 = ADVANCED_FACE ( 'NONE', ( #212 ), #265, .T. ) ;
#207 = PRODUCT_DEFINITION ( 'UNKNOWN', '', #179, #279 ) ;
#208 = CARTESIAN_POINT ( 'NONE',  ( 1.350000000000000100, 0.0000000000000000000, 0.0000000000000000000 ) ) ;
#209 = CC_DESIGN_DATE_AND_TIME_ASSIGNMENT ( #63, #153, ( #39 ) ) ;
#210 = CARTESIAN_POINT ( 'NONE',  ( -1.100000000000001600, 1.555301434917138000E-015, -12.69999999999999400 ) ) ;
#211 = EDGE_CURVE ( 'NONE', #54, #128, #150, .T. ) ;
#212 = FACE_OUTER_BOUND ( 'NONE', #10, .T. ) ;
#213 = VERTEX_POINT ( 'NONE', #210 ) ;
#214 = CARTESIAN_POINT ( 'NONE',  ( -113.6499958998444300, 3.760754067221410200E-018, -0.03070888741014792000 ) ) ;
#215 = EDGE_CURVE ( 'NONE', #54, #220, #218, .T. ) ;
#216 =( GEOMETRIC_REPRESENTATION_CONTEXT ( 3 ) GLOBAL_UNCERTAINTY_ASSIGNED_CONTEXT ( ( #123 ) ) GLOBAL_UNIT_ASSIGNED_CONTEXT ( ( #193, #134, #59 ) ) REPRESENTATION_CONTEXT ( 'NONE', 'WORKASPACE' ) );
#217 = CARTESIAN_POINT ( 'NONE',  ( 0.6772391480640016500, 0.0000000000000000000, 0.0000000000000000000 ) ) ;
#218 = LINE ( 'NONE', #122, #183 ) ;
#219 = FACE_OUTER_BOUND ( 'NONE', #13, .T. ) ;
#220 = VERTEX_POINT ( 'NONE', #55 ) ;
#221 = DATE_AND_TIME ( #187, #176 ) ;
#222 = DIRECTION ( 'NONE',  ( -1.000000000000000000, -0.0000000000000000000, -0.0000000000000000000 ) ) ;
#223 = ORIENTED_EDGE ( 'NONE', *, *, #246, .F. ) ;
#224 = DIRECTION ( 'NONE',  ( 1.000000000000000000, 0.0000000000000000000, 0.0000000000000000000 ) ) ;
#225 = DIRECTION ( 'NONE',  ( -1.000000000000000000, -0.0000000000000000000, -0.0000000000000000000 ) ) ;
#226 = AXIS2_PLACEMENT_3D ( 'NONE', #12, #301, #184 ) ;
#227 = CIRCLE ( 'NONE', #287, 12.69999999999999400 ) ;
#228 = ORIENTED_EDGE ( 'NONE', *, *, #266, .T. ) ;
#229 = DIRECTION ( 'NONE',  ( 0.0000000000000000000, 0.0000000000000000000, 1.000000000000000000 ) ) ;
#230 = CARTESIAN_POINT ( 'NONE',  ( 0.3999999999999698200, 0.0000000000000000000, 0.0000000000000000000 ) ) ;
#231 = PERSON_AND_ORGANIZATION_ROLE ( 'creator' ) ;
#232 = ADVANCED_FACE ( 'NONE', ( #251 ), #110, .T. ) ;
#233 = EDGE_CURVE ( 'NONE', #200, #70, #173, .T. ) ;
#234 = ORIENTED_EDGE ( 'NONE', *, *, #238, .F. ) ;
#235 = CLOSED_SHELL ( 'NONE', ( #195, #197, #206, #65, #151, #232, #28, #191, #145 ) ) ;
#236 = APPROVAL ( #146, 'UNSPECIFIED' ) ;
#237 = AXIS2_PLACEMENT_3D ( 'NONE', #182, #40, #164 ) ;
#238 = EDGE_CURVE ( 'NONE', #2, #160, #172, .T. ) ;
#239 = DIRECTION ( 'NONE',  ( -0.7450395119740727000, 8.168643166577700800E-017, -0.6670203337211209100 ) ) ;
#240 = DIRECTION ( 'NONE',  ( -1.000000000000000000, -0.0000000000000000000, -0.0000000000000000000 ) ) ;
#241 = ORIENTED_EDGE ( 'NONE', *, *, #43, .F. ) ;
#242 = VECTOR ( 'NONE', #248, 1000.000000000000000 ) ;
#243 = CARTESIAN_POINT ( 'NONE',  ( -1.350000000000000100, 0.0000000000000000000, -12.44999999999999800 ) ) ;
#244 = APPROVAL_PERSON_ORGANIZATION ( #262, #92, #126 ) ;
#245 = DIRECTION ( 'NONE',  ( 0.0000000000000000000, 0.0000000000000000000, 1.000000000000000000 ) ) ;
#246 = EDGE_CURVE ( 'NONE', #189, #160, #156, .T. ) ;
#247 = LINE ( 'NONE', #155, #157 ) ;
#248 = DIRECTION ( 'NONE',  ( -1.000000000000000000, -0.0000000000000000000, -0.0000000000000000000 ) ) ;
#249 = APPLICATION_CONTEXT ( 'configuration controlled 3d designs of mechanical parts and assemblies' ) ;
#250 = ORIENTED_EDGE ( 'NONE', *, *, #215, .T. ) ;
#251 = FACE_OUTER_BOUND ( 'NONE', #84, .T. ) ;
#252 = DIRECTION ( 'NONE',  ( 0.0000000000000000000, 0.0000000000000000000, 1.000000000000000000 ) ) ;
#253 = CARTESIAN_POINT ( 'NONE',  ( -1.350000000000000100, 0.0000000000000000000, 0.0000000000000000000 ) ) ;
#254 = ORIENTED_EDGE ( 'NONE', *, *, #185, .F. ) ;
#255 = CARTESIAN_POINT ( 'NONE',  ( 0.6772391480640016500, 0.0000000000000000000, 12.45179282965509800 ) ) ;
#256 = AXIS2_PLACEMENT_3D ( 'NONE', #268, #267, #259 ) ;
#257 = SHAPE_DEFINITION_REPRESENTATION ( #168, #85 ) ;
#258 = FACE_OUTER_BOUND ( 'NONE', #288, .T. ) ;
#259 = DIRECTION ( 'NONE',  ( 0.0000000000000000000, 0.0000000000000000000, 1.000000000000000000 ) ) ;
#260 = CARTESIAN_POINT ( 'NONE',  ( -1.350000000000000100, 0.0000000000000000000, 0.0000000000000000000 ) ) ;
#261 = CARTESIAN_POINT ( 'NONE',  ( -1.350000000000000100, 0.0000000000000000000, 12.69999999999999400 ) ) ;
#262 = PERSON_AND_ORGANIZATION ( #118, #181 ) ;
#263 = PERSON_AND_ORGANIZATION ( #118, #181 ) ;
#264 = ORIENTED_EDGE ( 'NONE', *, *, #49, .T. ) ;
#265 = TOROIDAL_SURFACE ( 'NONE', #7, 0.03070888741014792000, 114.9999999999999900 ) ;
#266 = EDGE_CURVE ( 'NONE', #189, #220, #138, .T. ) ;
#267 = DIRECTION ( 'NONE',  ( -1.000000000000000000, -0.0000000000000000000, -0.0000000000000000000 ) ) ;
#268 = CARTESIAN_POINT ( 'NONE',  ( 0.3999999999999698200, 0.0000000000000000000, 0.0000000000000000000 ) ) ;
#269 = LINE ( 'NONE', #3, #94 ) ;
#270 = ORIENTED_EDGE ( 'NONE', *, *, #215, .F. ) ;
#271 = ORIENTED_EDGE ( 'NONE', *, *, #266, .F. ) ;
#272 = EDGE_CURVE ( 'NONE', #128, #213, #269, .T. ) ;
#273 = CARTESIAN_POINT ( 'NONE',  ( 0.3999999999999698200, 0.0000000000000000000, 0.0000000000000000000 ) ) ;
#274 = CARTESIAN_POINT ( 'NONE',  ( -1.350000000000000100, 0.0000000000000000000, 0.0000000000000000000 ) ) ;
#275 = CC_DESIGN_PERSON_AND_ORGANIZATION_ASSIGNMENT ( #30, #45, ( #179 ) ) ;
#276 = ORIENTED_EDGE ( 'NONE', *, *, #73, .F. ) ;
#277 = DIRECTION ( 'NONE',  ( 1.000000000000000000, 0.0000000000000000000, 0.0000000000000000000 ) ) ;
#278 = AXIS2_PLACEMENT_3D ( 'NONE', #274, #224, #77 ) ;
#279 = DESIGN_CONTEXT ( 'detailed design', #29, 'design' ) ;
#280 = DIRECTION ( 'NONE',  ( -1.000000000000000000, -0.0000000000000000000, -0.0000000000000000000 ) ) ;
#281 = ORIENTED_EDGE ( 'NONE', *, *, #211, .T. ) ;
#282 = AXIS2_PLACEMENT_3D ( 'NONE', #20, #9, #38 ) ;
#283 = CARTESIAN_POINT ( 'NONE',  ( 0.0000000000000000000, 0.0000000000000000000, 0.0000000000000000000 ) ) ;
#284 = CC_DESIGN_PERSON_AND_ORGANIZATION_ASSIGNMENT ( #263, #285, ( #174 ) ) ;
#285 = PERSON_AND_ORGANIZATION_ROLE ( 'design_owner' ) ;
#286 = CALENDAR_DATE ( 2015, 29, 5 ) ;
#287 = AXIS2_PLACEMENT_3D ( 'NONE', #80, #4, #15 ) ;
#288 = EDGE_LOOP ( 'NONE', ( #129, #106, #223, #139 ) ) ;
#289 = AXIS2_PLACEMENT_3D ( 'NONE', #260, #89, #148 ) ;
#290 = LOCAL_TIME ( 10, 22, 35.00000000000000000, #68 ) ;
#291 = VECTOR ( 'NONE', #280, 1000.000000000000000 ) ;
#292 = AXIS2_PLACEMENT_3D ( 'NONE', #133, #37, #295 ) ;
#293 = CONICAL_SURFACE ( 'NONE', #278, 12.44999999999999800, 0.7853981633974447300 ) ;
#294 = AXIS2_PLACEMENT_3D ( 'NONE', #283, #25, #131 ) ;
#295 = DIRECTION ( 'NONE',  ( 0.0000000000000000000, 0.0000000000000000000, 1.000000000000000000 ) ) ;
#296 = ORIENTED_EDGE ( 'NONE', *, *, #211, .F. ) ;
#297 = ORIENTED_EDGE ( 'NONE', *, *, #21, .F. ) ;
#298 = SECURITY_CLASSIFICATION_LEVEL ( 'unclassified' ) ;
#299 = FACE_OUTER_BOUND ( 'NONE', #48, .T. ) ;
#300 = CC_DESIGN_APPROVAL ( #159, ( #179 ) ) ;
#301 = DIRECTION ( 'NONE',  ( -1.000000000000000000, -0.0000000000000000000, -0.0000000000000000000 ) ) ;
ENDSEC;
END-ISO-10303-21;
