ISO-10303-21;
HEADER;
FILE_DESCRIPTION (( 'STEP AP203' ),
    '1' );
FILE_NAME ('Web Model 63209_14808.step',
    '2020-10-07T17:39:14',
    ( '' ),
    ( '' ),
    'SwSTEP 2.0',
    'SolidWorks 2018',
    '' );
FILE_SCHEMA (( 'CONFIG_CONTROL_DESIGN' ));
ENDSEC;

DATA;
#1 = EDGE_LOOP ( 'NONE', ( #155, #62 ) ) ;
#2 = ADVANCED_FACE ( 'NONE', ( #56 ), #52, .T. ) ;
#3 = DIRECTION ( 'NONE',  ( -1.000000000000000000, 0.0000000000000000000, 0.0000000000000000000 ) ) ;
#4 = CALENDAR_DATE ( 2020, 7, 10 ) ;
#5 = APPROVAL_STATUS ( 'not_yet_approved' ) ;
#6 = DIRECTION ( 'NONE',  ( -0.0000000000000000000, -0.0000000000000000000, -1.000000000000000000 ) ) ;
#7 = SHAPE_DEFINITION_REPRESENTATION ( #141, #12 ) ;
#8 = SECURITY_CLASSIFICATION_LEVEL ( 'unclassified' ) ;
#9 = DIRECTION ( 'NONE',  ( -0.0000000000000000000, -0.0000000000000000000, -1.000000000000000000 ) ) ;
#10 = PERSON_AND_ORGANIZATION ( #159, #156 ) ;
#11 = CLOSED_SHELL ( 'NONE', ( #127, #158, #2, #87 ) ) ;
#12 = ADVANCED_BREP_SHAPE_REPRESENTATION ( 'Web Model 63209_14808', ( #27, #83 ), #152 ) ;
#13 = EDGE_LOOP ( 'NONE', ( #16, #60, #148, #37 ) ) ;
#14 = CYLINDRICAL_SURFACE ( 'NONE', #71, 20.00000000000000000 ) ;
#15 = COORDINATED_UNIVERSAL_TIME_OFFSET ( 5, 0, .BEHIND. ) ;
#16 = ORIENTED_EDGE ( 'NONE', *, *, #168, .F. ) ;
#17 = AXIS2_PLACEMENT_3D ( 'NONE', #133, #24, #96 ) ;
#18 = DIRECTION ( 'NONE',  ( 1.000000000000000000, 0.0000000000000000000, -0.0000000000000000000 ) ) ;
#19 = APPLICATION_CONTEXT ( 'configuration controlled 3d designs of mechanical parts and assemblies' ) ;
#20 = CARTESIAN_POINT ( 'NONE',  ( 20.00000000000000000, 2.449293598294706513E-15, 0.0000000000000000000 ) ) ;
#21 = APPLICATION_PROTOCOL_DEFINITION ( 'international standard', 'config_control_design', 1994, #171 ) ;
#22 = LOCAL_TIME ( 13, 39, 14.00000000000000000, #107 ) ;
#23 = CARTESIAN_POINT ( 'NONE',  ( 20.00000000000000000, 2.449293598294706513E-15, 3.000000000000000000 ) ) ;
#24 = DIRECTION ( 'NONE',  ( 0.0000000000000000000, 0.0000000000000000000, 1.000000000000000000 ) ) ;
#25 = VECTOR ( 'NONE', #38, 1000.000000000000000 ) ;
#26 = DATE_AND_TIME ( #101, #162 ) ;
#27 = MANIFOLD_SOLID_BREP ( 'Extrude1', #11 ) ;
#28 = PERSON_AND_ORGANIZATION ( #159, #156 ) ;
#29 = DATE_AND_TIME ( #4, #78 ) ;
#30 = CIRCLE ( 'NONE', #135, 20.00000000000000000 ) ;
#31 = AXIS2_PLACEMENT_3D ( 'NONE', #145, #90, #93 ) ;
#32 = VERTEX_POINT ( 'NONE', #114 ) ;
#33 = EDGE_CURVE ( 'NONE', #103, #99, #120, .T. ) ;
#34 = CC_DESIGN_APPROVAL ( #53, ( #73 ) ) ;
#35 = LOCAL_TIME ( 13, 39, 14.00000000000000000, #79 ) ;
#36 = APPROVAL_ROLE ( '' ) ;
#37 = ORIENTED_EDGE ( 'NONE', *, *, #122, .F. ) ;
#38 = DIRECTION ( 'NONE',  ( -0.0000000000000000000, -0.0000000000000000000, -1.000000000000000000 ) ) ;
#39 = PRODUCT_DEFINITION_FORMATION_WITH_SPECIFIED_SOURCE ( 'ANY', '', #119, .NOT_KNOWN. ) ;
#40 = CIRCLE ( 'NONE', #31, 20.00000000000000000 ) ;
#41 = PERSON_AND_ORGANIZATION ( #159, #156 ) ;
#42 = EDGE_CURVE ( 'NONE', #123, #103, #40, .T. ) ;
#43 = CC_DESIGN_PERSON_AND_ORGANIZATION_ASSIGNMENT ( #10, #54, ( #39 ) ) ;
#44 = EDGE_LOOP ( 'NONE', ( #136, #97, #91, #170 ) ) ;
#45 = APPROVAL_DATE_TIME ( #75, #110 ) ;
#46 = APPROVAL_PERSON_ORGANIZATION ( #49, #53, #36 ) ;
#47 = DIRECTION ( 'NONE',  ( 0.0000000000000000000, 0.0000000000000000000, 1.000000000000000000 ) ) ;
#48 = MECHANICAL_CONTEXT ( 'NONE', #19, 'mechanical' ) ;
#49 = PERSON_AND_ORGANIZATION ( #159, #156 ) ;
#50 = PERSON_AND_ORGANIZATION_ROLE ( 'creator' ) ;
#51 = EDGE_CURVE ( 'NONE', #99, #32, #131, .T. ) ;
#52 = PLANE ( 'NONE',  #17 ) ;
#53 = APPROVAL ( #5, 'UNSPECIFIED' ) ;
#54 = PERSON_AND_ORGANIZATION_ROLE ( 'design_supplier' ) ;
#55 = SECURITY_CLASSIFICATION ( '', '', #8 ) ;
#56 = FACE_OUTER_BOUND ( 'NONE', #167, .T. ) ;
#57 = CALENDAR_DATE ( 2020, 7, 10 ) ;
#58 = CIRCLE ( 'NONE', #126, 20.00000000000000000 ) ;
#59 = CC_DESIGN_APPROVAL ( #108, ( #39 ) ) ;
#60 = ORIENTED_EDGE ( 'NONE', *, *, #33, .T. ) ;
#61 = EDGE_CURVE ( 'NONE', #32, #99, #30, .T. ) ;
#62 = ORIENTED_EDGE ( 'NONE', *, *, #51, .F. ) ;
#63 =( NAMED_UNIT ( * ) PLANE_ANGLE_UNIT ( ) SI_UNIT ( $, .RADIAN. ) );
#64 = CC_DESIGN_PERSON_AND_ORGANIZATION_ASSIGNMENT ( #149, #132, ( #55 ) ) ;
#65 = DATE_TIME_ROLE ( 'creation_date' ) ;
#66 = CARTESIAN_POINT ( 'NONE',  ( 0.0000000000000000000, 0.0000000000000000000, 3.000000000000000000 ) ) ;
#67 = CARTESIAN_POINT ( 'NONE',  ( 0.0000000000000000000, 0.0000000000000000000, 3.000000000000000000 ) ) ;
#68 = CYLINDRICAL_SURFACE ( 'NONE', #137, 20.00000000000000000 ) ;
#69 = APPROVAL_ROLE ( '' ) ;
#70 = CALENDAR_DATE ( 2020, 7, 10 ) ;
#71 = AXIS2_PLACEMENT_3D ( 'NONE', #67, #165, #104 ) ;
#72 = CALENDAR_DATE ( 2020, 7, 10 ) ;
#73 = PRODUCT_DEFINITION ( 'UNKNOWN', '', #39, #121 ) ;
#74 = UNCERTAINTY_MEASURE_WITH_UNIT (LENGTH_MEASURE( 1.000000000000000082E-05 ), #82, 'distance_accuracy_value', 'NONE');
#75 = DATE_AND_TIME ( #57, #129 ) ;
#76 = FACE_OUTER_BOUND ( 'NONE', #1, .T. ) ;
#77 =( NAMED_UNIT ( * ) SI_UNIT ( $, .STERADIAN. ) SOLID_ANGLE_UNIT ( ) );
#78 = LOCAL_TIME ( 13, 39, 14.00000000000000000, #112 ) ;
#79 = COORDINATED_UNIVERSAL_TIME_OFFSET ( 5, 0, .BEHIND. ) ;
#80 = CARTESIAN_POINT ( 'NONE',  ( 0.0000000000000000000, 0.0000000000000000000, 3.000000000000000000 ) ) ;
#81 = DIRECTION ( 'NONE',  ( 0.0000000000000000000, 0.0000000000000000000, 1.000000000000000000 ) ) ;
#82 =( LENGTH_UNIT ( ) NAMED_UNIT ( * ) SI_UNIT ( .MILLI., .METRE. ) );
#83 = AXIS2_PLACEMENT_3D ( 'NONE', #142, #116, #160 ) ;
#84 = LINE ( 'NONE', #172, #25 ) ;
#85 = APPROVAL_STATUS ( 'not_yet_approved' ) ;
#86 = AXIS2_PLACEMENT_3D ( 'NONE', #143, #105, #18 ) ;
#87 = ADVANCED_FACE ( 'NONE', ( #76 ), #118, .F. ) ;
#88 = CC_DESIGN_DATE_AND_TIME_ASSIGNMENT ( #174, #65, ( #73 ) ) ;
#89 = VECTOR ( 'NONE', #9, 1000.000000000000000 ) ;
#90 = DIRECTION ( 'NONE',  ( 0.0000000000000000000, 0.0000000000000000000, 1.000000000000000000 ) ) ;
#91 = ORIENTED_EDGE ( 'NONE', *, *, #122, .T. ) ;
#92 = PERSON_AND_ORGANIZATION_ROLE ( 'design_owner' ) ;
#93 = DIRECTION ( 'NONE',  ( 1.000000000000000000, 0.0000000000000000000, 0.0000000000000000000 ) ) ;
#94 = DIRECTION ( 'NONE',  ( 0.0000000000000000000, 0.0000000000000000000, 1.000000000000000000 ) ) ;
#95 = CARTESIAN_POINT ( 'NONE',  ( 20.00000000000000000, 2.449293598294706513E-15, 3.000000000000000000 ) ) ;
#96 = DIRECTION ( 'NONE',  ( 1.000000000000000000, 0.0000000000000000000, -0.0000000000000000000 ) ) ;
#97 = ORIENTED_EDGE ( 'NONE', *, *, #42, .F. ) ;
#98 = DATE_AND_TIME ( #70, #35 ) ;
#99 = VERTEX_POINT ( 'NONE', #20 ) ;
#100 = PRODUCT_RELATED_PRODUCT_CATEGORY ( 'detail', '', ( #119 ) ) ;
#101 = CALENDAR_DATE ( 2020, 7, 10 ) ;
#102 = ORIENTED_EDGE ( 'NONE', *, *, #42, .T. ) ;
#103 = VERTEX_POINT ( 'NONE', #23 ) ;
#104 = DIRECTION ( 'NONE',  ( -1.000000000000000000, 0.0000000000000000000, 0.0000000000000000000 ) ) ;
#105 = DIRECTION ( 'NONE',  ( 0.0000000000000000000, 0.0000000000000000000, 1.000000000000000000 ) ) ;
#106 = CARTESIAN_POINT ( 'NONE',  ( 0.0000000000000000000, 0.0000000000000000000, 0.0000000000000000000 ) ) ;
#107 = COORDINATED_UNIVERSAL_TIME_OFFSET ( 5, 0, .BEHIND. ) ;
#108 = APPROVAL ( #161, 'UNSPECIFIED' ) ;
#109 = DATE_TIME_ROLE ( 'classification_date' ) ;
#110 = APPROVAL ( #85, 'UNSPECIFIED' ) ;
#111 = PERSON_AND_ORGANIZATION ( #159, #156 ) ;
#112 = COORDINATED_UNIVERSAL_TIME_OFFSET ( 5, 0, .BEHIND. ) ;
#113 = COORDINATED_UNIVERSAL_TIME_OFFSET ( 5, 0, .BEHIND. ) ;
#114 = CARTESIAN_POINT ( 'NONE',  ( -20.00000000000000000, 0.0000000000000000000, 0.0000000000000000000 ) ) ;
#115 = APPLICATION_PROTOCOL_DEFINITION ( 'international standard', 'config_control_design', 1994, #19 ) ;
#116 = DIRECTION ( 'NONE',  ( 0.0000000000000000000, 0.0000000000000000000, 1.000000000000000000 ) ) ;
#117 = CC_DESIGN_APPROVAL ( #110, ( #55 ) ) ;
#118 = PLANE ( 'NONE',  #86 ) ;
#119 = PRODUCT ( 'Web Model 63209_14808', 'Web Model 63209_14808', '', ( #48 ) ) ;
#120 = LINE ( 'NONE', #95, #89 ) ;
#121 = DESIGN_CONTEXT ( 'detailed design', #171, 'design' ) ;
#122 = EDGE_CURVE ( 'NONE', #123, #32, #84, .T. ) ;
#123 = VERTEX_POINT ( 'NONE', #130 ) ;
#124 = AXIS2_PLACEMENT_3D ( 'NONE', #106, #94, #147 ) ;
#125 = APPROVAL_DATE_TIME ( #98, #108 ) ;
#126 = AXIS2_PLACEMENT_3D ( 'NONE', #66, #47, #139 ) ;
#127 = ADVANCED_FACE ( 'NONE', ( #146 ), #68, .T. ) ;
#128 = PERSON_AND_ORGANIZATION ( #159, #156 ) ;
#129 = LOCAL_TIME ( 13, 39, 14.00000000000000000, #113 ) ;
#130 = CARTESIAN_POINT ( 'NONE',  ( -20.00000000000000000, 0.0000000000000000000, 3.000000000000000000 ) ) ;
#131 = CIRCLE ( 'NONE', #124, 20.00000000000000000 ) ;
#132 = PERSON_AND_ORGANIZATION_ROLE ( 'classification_officer' ) ;
#133 = CARTESIAN_POINT ( 'NONE',  ( 0.0000000000000000000, 0.0000000000000000000, 3.000000000000000000 ) ) ;
#134 = PERSON_AND_ORGANIZATION_ROLE ( 'creator' ) ;
#135 = AXIS2_PLACEMENT_3D ( 'NONE', #163, #81, #173 ) ;
#136 = ORIENTED_EDGE ( 'NONE', *, *, #33, .F. ) ;
#137 = AXIS2_PLACEMENT_3D ( 'NONE', #80, #6, #3 ) ;
#138 = CC_DESIGN_PERSON_AND_ORGANIZATION_ASSIGNMENT ( #28, #50, ( #73 ) ) ;
#139 = DIRECTION ( 'NONE',  ( 1.000000000000000000, 0.0000000000000000000, 0.0000000000000000000 ) ) ;
#140 = ORIENTED_EDGE ( 'NONE', *, *, #168, .T. ) ;
#141 = PRODUCT_DEFINITION_SHAPE ( 'NONE', 'NONE',  #73 ) ;
#142 = CARTESIAN_POINT ( 'NONE',  ( 0.0000000000000000000, 0.0000000000000000000, 0.0000000000000000000 ) ) ;
#143 = CARTESIAN_POINT ( 'NONE',  ( 0.0000000000000000000, 0.0000000000000000000, 0.0000000000000000000 ) ) ;
#144 = CC_DESIGN_DATE_AND_TIME_ASSIGNMENT ( #29, #109, ( #55 ) ) ;
#145 = CARTESIAN_POINT ( 'NONE',  ( 0.0000000000000000000, 0.0000000000000000000, 3.000000000000000000 ) ) ;
#146 = FACE_OUTER_BOUND ( 'NONE', #13, .T. ) ;
#147 = DIRECTION ( 'NONE',  ( 1.000000000000000000, 0.0000000000000000000, 0.0000000000000000000 ) ) ;
#148 = ORIENTED_EDGE ( 'NONE', *, *, #51, .T. ) ;
#149 = PERSON_AND_ORGANIZATION ( #159, #156 ) ;
#150 = CC_DESIGN_PERSON_AND_ORGANIZATION_ASSIGNMENT ( #111, #92, ( #119 ) ) ;
#151 = PERSON_AND_ORGANIZATION ( #159, #156 ) ;
#152 =( GEOMETRIC_REPRESENTATION_CONTEXT ( 3 ) GLOBAL_UNCERTAINTY_ASSIGNED_CONTEXT ( ( #74 ) ) GLOBAL_UNIT_ASSIGNED_CONTEXT ( ( #82, #63, #77 ) ) REPRESENTATION_CONTEXT ( 'NONE', 'WORKASPACE' ) );
#153 = FACE_OUTER_BOUND ( 'NONE', #44, .T. ) ;
#154 = APPROVAL_PERSON_ORGANIZATION ( #128, #108, #175 ) ;
#155 = ORIENTED_EDGE ( 'NONE', *, *, #61, .F. ) ;
#156 = ORGANIZATION ( 'UNSPECIFIED', 'UNSPECIFIED', '' ) ;
#157 = CC_DESIGN_SECURITY_CLASSIFICATION ( #55, ( #39 ) ) ;
#158 = ADVANCED_FACE ( 'NONE', ( #153 ), #14, .T. ) ;
#159 = PERSON ( 'UNSPECIFIED', 'UNSPECIFIED', 'UNSPECIFIED', ('UNSPECIFIED'), ('UNSPECIFIED'), ('UNSPECIFIED') ) ;
#160 = DIRECTION ( 'NONE',  ( 1.000000000000000000, 0.0000000000000000000, 0.0000000000000000000 ) ) ;
#161 = APPROVAL_STATUS ( 'not_yet_approved' ) ;
#162 = LOCAL_TIME ( 13, 39, 14.00000000000000000, #15 ) ;
#163 = CARTESIAN_POINT ( 'NONE',  ( 0.0000000000000000000, 0.0000000000000000000, 0.0000000000000000000 ) ) ;
#164 = APPROVAL_DATE_TIME ( #26, #53 ) ;
#165 = DIRECTION ( 'NONE',  ( -0.0000000000000000000, -0.0000000000000000000, -1.000000000000000000 ) ) ;
#166 = CC_DESIGN_PERSON_AND_ORGANIZATION_ASSIGNMENT ( #41, #134, ( #39 ) ) ;
#167 = EDGE_LOOP ( 'NONE', ( #102, #140 ) ) ;
#168 = EDGE_CURVE ( 'NONE', #103, #123, #58, .T. ) ;
#169 = APPROVAL_PERSON_ORGANIZATION ( #151, #110, #69 ) ;
#170 = ORIENTED_EDGE ( 'NONE', *, *, #61, .T. ) ;
#171 = APPLICATION_CONTEXT ( 'configuration controlled 3d designs of mechanical parts and assemblies' ) ;
#172 = CARTESIAN_POINT ( 'NONE',  ( -20.00000000000000000, 0.0000000000000000000, 3.000000000000000000 ) ) ;
#173 = DIRECTION ( 'NONE',  ( 1.000000000000000000, 0.0000000000000000000, 0.0000000000000000000 ) ) ;
#174 = DATE_AND_TIME ( #72, #22 ) ;
#175 = APPROVAL_ROLE ( '' ) ;
ENDSEC;
END-ISO-10303-21;
