ISO-10303-21;
HEADER;
FILE_DESCRIPTION (( 'STEP AP203' ),
    '1' );
FILE_NAME ('Web Model 62886.STEP',
    '2017-01-31T18:26:46',
    ( '' ),
    ( '' ),
    'SwSTEP 2.0',
    'SolidWorks 2016',
    '' );
FILE_SCHEMA (( 'CONFIG_CONTROL_DESIGN' ));
ENDSEC;

DATA;
#1 = DATE_AND_TIME ( #54, #113 ) ;
#2 = EDGE_CURVE ( 'NONE', #230, #188, #136, .T. ) ;
#3 = CARTESIAN_POINT ( 'NONE',  ( 37.50000000000000000, -25.00000000000000000, -3.000000000000000000 ) ) ;
#4 = LOCAL_TIME ( 13, 26, 46.00000000000000000, #105 ) ;
#5 = DIRECTION ( 'NONE',  ( 1.000000000000000000, 0.0000000000000000000, -0.0000000000000000000 ) ) ;
#6 = DIRECTION ( 'NONE',  ( -0.0000000000000000000, 0.0000000000000000000, -1.000000000000000000 ) ) ;
#7 = APPROVAL ( #161, 'UNSPECIFIED' ) ;
#8 = DIRECTION ( 'NONE',  ( 0.0000000000000000000, -1.000000000000000000, 0.0000000000000000000 ) ) ;
#9 = LINE ( 'NONE', #25, #152 ) ;
#10 = DIRECTION ( 'NONE',  ( 0.0000000000000000000, -0.0000000000000000000, -1.000000000000000000 ) ) ;
#11 = DIRECTION ( 'NONE',  ( 0.0000000000000000000, -0.0000000000000000000, 1.000000000000000000 ) ) ;
#12 =( NAMED_UNIT ( * ) PLANE_ANGLE_UNIT ( ) SI_UNIT ( $, .RADIAN. ) );
#13 = APPLICATION_CONTEXT ( 'configuration controlled 3d designs of mechanical parts and assemblies' ) ;
#14 = APPROVAL_STATUS ( 'not_yet_approved' ) ;
#15 = LINE ( 'NONE', #83, #63 ) ;
#16 = PERSON_AND_ORGANIZATION_ROLE ( 'classification_officer' ) ;
#17 = ORIENTED_EDGE ( 'NONE', *, *, #116, .F. ) ;
#18 = EDGE_LOOP ( 'NONE', ( #77, #165, #76, #121 ) ) ;
#19 = CC_DESIGN_DATE_AND_TIME_ASSIGNMENT ( #1, #53, ( #229 ) ) ;
#20 = ORIENTED_EDGE ( 'NONE', *, *, #22, .T. ) ;
#21 = MANIFOLD_SOLID_BREP ( 'Extrude1', #215 ) ;
#22 = EDGE_CURVE ( 'NONE', #124, #160, #15, .T. ) ;
#23 = PERSON_AND_ORGANIZATION ( #158, #103 ) ;
#24 = ORIENTED_EDGE ( 'NONE', *, *, #71, .T. ) ;
#25 = CARTESIAN_POINT ( 'NONE',  ( -37.50000000000000000, 25.00000000000000000, 0.0000000000000000000 ) ) ;
#26 = CARTESIAN_POINT ( 'NONE',  ( -37.50000000000000000, -25.00000000000000000, -3.000000000000000000 ) ) ;
#27 = AXIS2_PLACEMENT_3D ( 'NONE', #176, #232, #11 ) ;
#28 = LINE ( 'NONE', #40, #163 ) ;
#29 = PRODUCT_DEFINITION_SHAPE ( 'NONE', 'NONE',  #166 ) ;
#30 = FACE_OUTER_BOUND ( 'NONE', #107, .T. ) ;
#31 = CARTESIAN_POINT ( 'NONE',  ( 37.50000000000000000, 25.00000000000000000, -3.000000000000000000 ) ) ;
#32 = FACE_OUTER_BOUND ( 'NONE', #18, .T. ) ;
#33 = CC_DESIGN_PERSON_AND_ORGANIZATION_ASSIGNMENT ( #93, #202, ( #166 ) ) ;
#34 = ORIENTED_EDGE ( 'NONE', *, *, #109, .F. ) ;
#35 = LINE ( 'NONE', #214, #61 ) ;
#36 = CC_DESIGN_PERSON_AND_ORGANIZATION_ASSIGNMENT ( #23, #106, ( #219 ) ) ;
#37 = APPROVAL_DATE_TIME ( #131, #7 ) ;
#38 = PERSON_AND_ORGANIZATION ( #158, #103 ) ;
#39 = ORIENTED_EDGE ( 'NONE', *, *, #2, .T. ) ;
#40 = CARTESIAN_POINT ( 'NONE',  ( -37.50000000000000000, -25.00000000000000000, 0.0000000000000000000 ) ) ;
#41 = AXIS2_PLACEMENT_3D ( 'NONE', #151, #68, #102 ) ;
#42 = PLANE ( 'NONE',  #41 ) ;
#43 = ADVANCED_BREP_SHAPE_REPRESENTATION ( 'Web Model 62886', ( #21, #153 ), #159 ) ;
#44 = APPROVAL_PERSON_ORGANIZATION ( #184, #7, #181 ) ;
#45 = DIRECTION ( 'NONE',  ( 0.0000000000000000000, -1.000000000000000000, 0.0000000000000000000 ) ) ;
#46 = FACE_OUTER_BOUND ( 'NONE', #80, .T. ) ;
#47 = CARTESIAN_POINT ( 'NONE',  ( 37.50000000000000000, -25.00000000000000000, -3.000000000000000000 ) ) ;
#48 =( LENGTH_UNIT ( ) NAMED_UNIT ( * ) SI_UNIT ( .MILLI., .METRE. ) );
#49 = CARTESIAN_POINT ( 'NONE',  ( -37.50000000000000000, -25.00000000000000000, -3.000000000000000000 ) ) ;
#50 = APPROVAL_DATE_TIME ( #209, #56 ) ;
#51 = LOCAL_TIME ( 13, 26, 46.00000000000000000, #205 ) ;
#52 = DIRECTION ( 'NONE',  ( 0.0000000000000000000, 0.0000000000000000000, 1.000000000000000000 ) ) ;
#53 = DATE_TIME_ROLE ( 'classification_date' ) ;
#54 = CALENDAR_DATE ( 2017, 31, 1 ) ;
#55 = ORIENTED_EDGE ( 'NONE', *, *, #157, .T. ) ;
#56 = APPROVAL ( #140, 'UNSPECIFIED' ) ;
#57 = FACE_OUTER_BOUND ( 'NONE', #85, .T. ) ;
#58 = AXIS2_PLACEMENT_3D ( 'NONE', #65, #212, #86 ) ;
#59 = LOCAL_TIME ( 13, 26, 46.00000000000000000, #195 ) ;
#60 = VECTOR ( 'NONE', #62, 1000.000000000000000 ) ;
#61 = VECTOR ( 'NONE', #154, 1000.000000000000000 ) ;
#62 = DIRECTION ( 'NONE',  ( 0.0000000000000000000, -1.000000000000000000, 0.0000000000000000000 ) ) ;
#63 = VECTOR ( 'NONE', #224, 1000.000000000000000 ) ;
#64 = ORIENTED_EDGE ( 'NONE', *, *, #116, .T. ) ;
#65 = CARTESIAN_POINT ( 'NONE',  ( -37.50000000000000000, -25.00000000000000000, 0.0000000000000000000 ) ) ;
#66 = CARTESIAN_POINT ( 'NONE',  ( -37.50000000000000000, 25.00000000000000000, 0.0000000000000000000 ) ) ;
#67 = EDGE_CURVE ( 'NONE', #124, #208, #150, .T. ) ;
#68 = DIRECTION ( 'NONE',  ( -0.0000000000000000000, 0.0000000000000000000, 1.000000000000000000 ) ) ;
#69 = DIRECTION ( 'NONE',  ( -0.0000000000000000000, 1.000000000000000000, -0.0000000000000000000 ) ) ;
#70 = VECTOR ( 'NONE', #69, 1000.000000000000000 ) ;
#71 = EDGE_CURVE ( 'NONE', #170, #188, #28, .T. ) ;
#72 = CARTESIAN_POINT ( 'NONE',  ( -37.50000000000000000, -25.00000000000000000, 0.0000000000000000000 ) ) ;
#73 = DESIGN_CONTEXT ( 'detailed design', #13, 'design' ) ;
#74 = DIRECTION ( 'NONE',  ( 1.000000000000000000, 0.0000000000000000000, 0.0000000000000000000 ) ) ;
#75 = DATE_AND_TIME ( #120, #59 ) ;
#76 = ORIENTED_EDGE ( 'NONE', *, *, #67, .T. ) ;
#77 = ORIENTED_EDGE ( 'NONE', *, *, #126, .F. ) ;
#78 = EDGE_CURVE ( 'NONE', #218, #160, #127, .T. ) ;
#79 = LOCAL_TIME ( 13, 26, 46.00000000000000000, #191 ) ;
#80 = EDGE_LOOP ( 'NONE', ( #222, #17, #111, #34 ) ) ;
#81 = AXIS2_PLACEMENT_3D ( 'NONE', #26, #45, #10 ) ;
#82 = VECTOR ( 'NONE', #129, 1000.000000000000000 ) ;
#83 = CARTESIAN_POINT ( 'NONE',  ( -37.50000000000000000, 25.00000000000000000, -3.000000000000000000 ) ) ;
#84 = CARTESIAN_POINT ( 'NONE',  ( 37.50000000000000000, 25.00000000000000000, 0.0000000000000000000 ) ) ;
#85 = EDGE_LOOP ( 'NONE', ( #210, #98, #64, #20 ) ) ;
#86 = DIRECTION ( 'NONE',  ( 1.000000000000000000, 0.0000000000000000000, 0.0000000000000000000 ) ) ;
#87 = APPLICATION_PROTOCOL_DEFINITION ( 'international standard', 'config_control_design', 1994, #89 ) ;
#88 = PERSON_AND_ORGANIZATION_ROLE ( 'design_supplier' ) ;
#89 = APPLICATION_CONTEXT ( 'configuration controlled 3d designs of mechanical parts and assemblies' ) ;
#90 = ORIENTED_EDGE ( 'NONE', *, *, #2, .F. ) ;
#91 = VECTOR ( 'NONE', #134, 1000.000000000000000 ) ;
#92 = CC_DESIGN_APPROVAL ( #56, ( #229 ) ) ;
#93 = PERSON_AND_ORGANIZATION ( #158, #103 ) ;
#94 = APPROVAL_PERSON_ORGANIZATION ( #142, #56, #182 ) ;
#95 = ORIENTED_EDGE ( 'NONE', *, *, #141, .T. ) ;
#96 = PLANE ( 'NONE',  #27 ) ;
#97 = PERSON_AND_ORGANIZATION ( #158, #103 ) ;
#98 = ORIENTED_EDGE ( 'NONE', *, *, #157, .F. ) ;
#99 = CARTESIAN_POINT ( 'NONE',  ( -37.50000000000000000, 25.00000000000000000, -3.000000000000000000 ) ) ;
#100 = VECTOR ( 'NONE', #171, 1000.000000000000000 ) ;
#101 = CC_DESIGN_SECURITY_CLASSIFICATION ( #229, ( #219 ) ) ;
#102 = DIRECTION ( 'NONE',  ( 1.000000000000000000, 0.0000000000000000000, 0.0000000000000000000 ) ) ;
#103 = ORGANIZATION ( 'UNSPECIFIED', 'UNSPECIFIED', '' ) ;
#104 = APPROVAL_ROLE ( '' ) ;
#105 = COORDINATED_UNIVERSAL_TIME_OFFSET ( 5, 0, .BEHIND. ) ;
#106 = PERSON_AND_ORGANIZATION_ROLE ( 'creator' ) ;
#107 = EDGE_LOOP ( 'NONE', ( #173, #114, #206, #39 ) ) ;
#108 = ADVANCED_FACE ( 'NONE', ( #220 ), #112, .T. ) ;
#109 = EDGE_CURVE ( 'NONE', #208, #230, #207, .T. ) ;
#110 = ADVANCED_FACE ( 'NONE', ( #32 ), #225, .T. ) ;
#111 = ORIENTED_EDGE ( 'NONE', *, *, #189, .F. ) ;
#112 = PLANE ( 'NONE',  #133 ) ;
#113 = LOCAL_TIME ( 13, 26, 46.00000000000000000, #164 ) ;
#114 = ORIENTED_EDGE ( 'NONE', *, *, #177, .F. ) ;
#115 = DIRECTION ( 'NONE',  ( 0.0000000000000000000, 0.0000000000000000000, 1.000000000000000000 ) ) ;
#116 = EDGE_CURVE ( 'NONE', #155, #124, #180, .T. ) ;
#117 = ORIENTED_EDGE ( 'NONE', *, *, #189, .T. ) ;
#118 = PLANE ( 'NONE',  #81 ) ;
#119 = APPLICATION_PROTOCOL_DEFINITION ( 'international standard', 'config_control_design', 1994, #13 ) ;
#120 = CALENDAR_DATE ( 2017, 31, 1 ) ;
#121 = ORIENTED_EDGE ( 'NONE', *, *, #177, .T. ) ;
#122 = PERSON_AND_ORGANIZATION_ROLE ( 'design_owner' ) ;
#123 = DATE_TIME_ROLE ( 'creation_date' ) ;
#124 = VERTEX_POINT ( 'NONE', #172 ) ;
#125 = ORIENTED_EDGE ( 'NONE', *, *, #78, .T. ) ;
#126 = EDGE_CURVE ( 'NONE', #160, #170, #9, .T. ) ;
#127 = LINE ( 'NONE', #190, #185 ) ;
#128 = ADVANCED_FACE ( 'NONE', ( #46 ), #42, .F. ) ;
#129 = DIRECTION ( 'NONE',  ( 0.0000000000000000000, 0.0000000000000000000, 1.000000000000000000 ) ) ;
#130 = AXIS2_PLACEMENT_3D ( 'NONE', #99, #227, #115 ) ;
#131 = DATE_AND_TIME ( #147, #79 ) ;
#132 = CARTESIAN_POINT ( 'NONE',  ( -37.50000000000000000, 25.00000000000000000, -3.000000000000000000 ) ) ;
#133 = AXIS2_PLACEMENT_3D ( 'NONE', #192, #5, #6 ) ;
#134 = DIRECTION ( 'NONE',  ( -1.000000000000000000, -0.0000000000000000000, -0.0000000000000000000 ) ) ;
#135 = CARTESIAN_POINT ( 'NONE',  ( -37.50000000000000000, -25.00000000000000000, -3.000000000000000000 ) ) ;
#136 = LINE ( 'NONE', #3, #82 ) ;
#137 = CC_DESIGN_APPROVAL ( #235, ( #166 ) ) ;
#138 =( NAMED_UNIT ( * ) SI_UNIT ( $, .STERADIAN. ) SOLID_ANGLE_UNIT ( ) );
#139 = SECURITY_CLASSIFICATION_LEVEL ( 'unclassified' ) ;
#140 = APPROVAL_STATUS ( 'not_yet_approved' ) ;
#141 = EDGE_CURVE ( 'NONE', #188, #218, #156, .T. ) ;
#142 = PERSON_AND_ORGANIZATION ( #158, #103 ) ;
#143 = ORIENTED_EDGE ( 'NONE', *, *, #141, .F. ) ;
#144 = PRODUCT ( 'Web Model 62886', 'Web Model 62886', '', ( #234 ) ) ;
#145 = LINE ( 'NONE', #135, #197 ) ;
#146 = ADVANCED_FACE ( 'NONE', ( #57 ), #96, .T. ) ;
#147 = CALENDAR_DATE ( 2017, 31, 1 ) ;
#148 = LINE ( 'NONE', #175, #100 ) ;
#149 = DATE_AND_TIME ( #237, #51 ) ;
#150 = LINE ( 'NONE', #132, #60 ) ;
#151 = CARTESIAN_POINT ( 'NONE',  ( -37.50000000000000000, -25.00000000000000000, -3.000000000000000000 ) ) ;
#152 = VECTOR ( 'NONE', #8, 1000.000000000000000 ) ;
#153 = AXIS2_PLACEMENT_3D ( 'NONE', #228, #52, #74 ) ;
#154 = DIRECTION ( 'NONE',  ( -0.0000000000000000000, 1.000000000000000000, -0.0000000000000000000 ) ) ;
#155 = VERTEX_POINT ( 'NONE', #31 ) ;
#156 = LINE ( 'NONE', #84, #70 ) ;
#157 = EDGE_CURVE ( 'NONE', #155, #218, #148, .T. ) ;
#158 = PERSON ( 'UNSPECIFIED', 'UNSPECIFIED', 'UNSPECIFIED', ('UNSPECIFIED'), ('UNSPECIFIED'), ('UNSPECIFIED') ) ;
#159 =( GEOMETRIC_REPRESENTATION_CONTEXT ( 3 ) GLOBAL_UNCERTAINTY_ASSIGNED_CONTEXT ( ( #194 ) ) GLOBAL_UNIT_ASSIGNED_CONTEXT ( ( #48, #12, #138 ) ) REPRESENTATION_CONTEXT ( 'NONE', 'WORKASPACE' ) );
#160 = VERTEX_POINT ( 'NONE', #66 ) ;
#161 = APPROVAL_STATUS ( 'not_yet_approved' ) ;
#162 = PRODUCT_RELATED_PRODUCT_CATEGORY ( 'detail', '', ( #144 ) ) ;
#163 = VECTOR ( 'NONE', #169, 1000.000000000000000 ) ;
#164 = COORDINATED_UNIVERSAL_TIME_OFFSET ( 5, 0, .BEHIND. ) ;
#165 = ORIENTED_EDGE ( 'NONE', *, *, #22, .F. ) ;
#166 = PRODUCT_DEFINITION ( 'UNKNOWN', '', #219, #73 ) ;
#167 = EDGE_LOOP ( 'NONE', ( #143, #90, #117, #55 ) ) ;
#168 = ADVANCED_FACE ( 'NONE', ( #226 ), #213, .T. ) ;
#169 = DIRECTION ( 'NONE',  ( 1.000000000000000000, 0.0000000000000000000, 0.0000000000000000000 ) ) ;
#170 = VERTEX_POINT ( 'NONE', #72 ) ;
#171 = DIRECTION ( 'NONE',  ( 0.0000000000000000000, 0.0000000000000000000, 1.000000000000000000 ) ) ;
#172 = CARTESIAN_POINT ( 'NONE',  ( -37.50000000000000000, 25.00000000000000000, -3.000000000000000000 ) ) ;
#173 = ORIENTED_EDGE ( 'NONE', *, *, #71, .F. ) ;
#174 = CC_DESIGN_PERSON_AND_ORGANIZATION_ASSIGNMENT ( #38, #122, ( #144 ) ) ;
#175 = CARTESIAN_POINT ( 'NONE',  ( 37.50000000000000000, 25.00000000000000000, -3.000000000000000000 ) ) ;
#176 = CARTESIAN_POINT ( 'NONE',  ( -37.50000000000000000, 25.00000000000000000, -3.000000000000000000 ) ) ;
#177 = EDGE_CURVE ( 'NONE', #208, #170, #145, .T. ) ;
#178 = CALENDAR_DATE ( 2017, 31, 1 ) ;
#179 = VECTOR ( 'NONE', #200, 1000.000000000000000 ) ;
#180 = LINE ( 'NONE', #198, #91 ) ;
#181 = APPROVAL_ROLE ( '' ) ;
#182 = APPROVAL_ROLE ( '' ) ;
#183 = CC_DESIGN_APPROVAL ( #7, ( #219 ) ) ;
#184 = PERSON_AND_ORGANIZATION ( #158, #103 ) ;
#185 = VECTOR ( 'NONE', #193, 1000.000000000000000 ) ;
#186 = SHAPE_DEFINITION_REPRESENTATION ( #29, #43 ) ;
#187 = CC_DESIGN_DATE_AND_TIME_ASSIGNMENT ( #149, #123, ( #166 ) ) ;
#188 = VERTEX_POINT ( 'NONE', #211 ) ;
#189 = EDGE_CURVE ( 'NONE', #230, #155, #35, .T. ) ;
#190 = CARTESIAN_POINT ( 'NONE',  ( -37.50000000000000000, 25.00000000000000000, 0.0000000000000000000 ) ) ;
#191 = COORDINATED_UNIVERSAL_TIME_OFFSET ( 5, 0, .BEHIND. ) ;
#192 = CARTESIAN_POINT ( 'NONE',  ( 37.50000000000000000, 25.00000000000000000, -3.000000000000000000 ) ) ;
#193 = DIRECTION ( 'NONE',  ( -1.000000000000000000, -0.0000000000000000000, -0.0000000000000000000 ) ) ;
#194 = UNCERTAINTY_MEASURE_WITH_UNIT (LENGTH_MEASURE( 1.000000000000000100E-005 ), #48, 'distance_accuracy_value', 'NONE');
#195 = COORDINATED_UNIVERSAL_TIME_OFFSET ( 5, 0, .BEHIND. ) ;
#196 = CC_DESIGN_PERSON_AND_ORGANIZATION_ASSIGNMENT ( #217, #88, ( #219 ) ) ;
#197 = VECTOR ( 'NONE', #199, 1000.000000000000000 ) ;
#198 = CARTESIAN_POINT ( 'NONE',  ( -37.50000000000000000, 25.00000000000000000, -3.000000000000000000 ) ) ;
#199 = DIRECTION ( 'NONE',  ( 0.0000000000000000000, 0.0000000000000000000, 1.000000000000000000 ) ) ;
#200 = DIRECTION ( 'NONE',  ( 1.000000000000000000, 0.0000000000000000000, 0.0000000000000000000 ) ) ;
#201 = PERSON_AND_ORGANIZATION ( #158, #103 ) ;
#202 = PERSON_AND_ORGANIZATION_ROLE ( 'creator' ) ;
#203 = ORIENTED_EDGE ( 'NONE', *, *, #126, .T. ) ;
#204 = CC_DESIGN_PERSON_AND_ORGANIZATION_ASSIGNMENT ( #97, #16, ( #229 ) ) ;
#205 = COORDINATED_UNIVERSAL_TIME_OFFSET ( 5, 0, .BEHIND. ) ;
#206 = ORIENTED_EDGE ( 'NONE', *, *, #109, .T. ) ;
#207 = LINE ( 'NONE', #49, #179 ) ;
#208 = VERTEX_POINT ( 'NONE', #231 ) ;
#209 = DATE_AND_TIME ( #178, #4 ) ;
#210 = ORIENTED_EDGE ( 'NONE', *, *, #78, .F. ) ;
#211 = CARTESIAN_POINT ( 'NONE',  ( 37.50000000000000000, -25.00000000000000000, 0.0000000000000000000 ) ) ;
#212 = DIRECTION ( 'NONE',  ( -0.0000000000000000000, 0.0000000000000000000, 1.000000000000000000 ) ) ;
#213 = PLANE ( 'NONE',  #58 ) ;
#214 = CARTESIAN_POINT ( 'NONE',  ( 37.50000000000000000, 25.00000000000000000, -3.000000000000000000 ) ) ;
#215 = CLOSED_SHELL ( 'NONE', ( #110, #146, #108, #223, #128, #168 ) ) ;
#216 = CARTESIAN_POINT ( 'NONE',  ( 37.50000000000000000, 25.00000000000000000, 0.0000000000000000000 ) ) ;
#217 = PERSON_AND_ORGANIZATION ( #158, #103 ) ;
#218 = VERTEX_POINT ( 'NONE', #216 ) ;
#219 = PRODUCT_DEFINITION_FORMATION_WITH_SPECIFIED_SOURCE ( 'ANY', '', #144, .NOT_KNOWN. ) ;
#220 = FACE_OUTER_BOUND ( 'NONE', #167, .T. ) ;
#221 = APPROVAL_PERSON_ORGANIZATION ( #201, #235, #104 ) ;
#222 = ORIENTED_EDGE ( 'NONE', *, *, #67, .F. ) ;
#223 = ADVANCED_FACE ( 'NONE', ( #30 ), #118, .T. ) ;
#224 = DIRECTION ( 'NONE',  ( 0.0000000000000000000, 0.0000000000000000000, 1.000000000000000000 ) ) ;
#225 = PLANE ( 'NONE',  #130 ) ;
#226 = FACE_OUTER_BOUND ( 'NONE', #236, .T. ) ;
#227 = DIRECTION ( 'NONE',  ( -1.000000000000000000, 0.0000000000000000000, 0.0000000000000000000 ) ) ;
#228 = CARTESIAN_POINT ( 'NONE',  ( 0.0000000000000000000, 0.0000000000000000000, 0.0000000000000000000 ) ) ;
#229 = SECURITY_CLASSIFICATION ( '', '', #139 ) ;
#230 = VERTEX_POINT ( 'NONE', #47 ) ;
#231 = CARTESIAN_POINT ( 'NONE',  ( -37.50000000000000000, -25.00000000000000000, -3.000000000000000000 ) ) ;
#232 = DIRECTION ( 'NONE',  ( 0.0000000000000000000, 1.000000000000000000, 0.0000000000000000000 ) ) ;
#233 = APPROVAL_DATE_TIME ( #75, #235 ) ;
#234 = MECHANICAL_CONTEXT ( 'NONE', #89, 'mechanical' ) ;
#235 = APPROVAL ( #14, 'UNSPECIFIED' ) ;
#236 = EDGE_LOOP ( 'NONE', ( #203, #24, #95, #125 ) ) ;
#237 = CALENDAR_DATE ( 2017, 31, 1 ) ;
ENDSEC;
END-ISO-10303-21;
