ISO-10303-21;
HEADER;
FILE_DESCRIPTION (( 'STEP AP203' ),
    '1' );
FILE_NAME ('Web Model 64397MX_43745.step',
    '2017-10-30T13:00:29',
    ( '' ),
    ( '' ),
    'SwSTEP 2.0',
    'SolidWorks 2016',
    '' );
FILE_SCHEMA (( 'CONFIG_CONTROL_DESIGN' ));
ENDSEC;

DATA;
#1 = PRODUCT_DEFINITION_SHAPE ( 'NONE', 'NONE',  #16 ) ;
#2 = LINE ( 'NONE', #63, #197 ) ;
#3 = ORIENTED_EDGE ( 'NONE', *, *, #53, .F. ) ;
#4 = CARTESIAN_POINT ( 'NONE',  ( -6.350000000000000500, 6.349999999999998800, 3.000000000000000000 ) ) ;
#5 = FACE_OUTER_BOUND ( 'NONE', #55, .T. ) ;
#6 = AXIS2_PLACEMENT_3D ( 'NONE', #211, #175, #132 ) ;
#7 = DIRECTION ( 'NONE',  ( -0.0000000000000000000, -0.0000000000000000000, -1.000000000000000000 ) ) ;
#8 = CARTESIAN_POINT ( 'NONE',  ( 6.349999999999998800, 6.350000000000000500, -3.000000000000000000 ) ) ;
#9 = ORIENTED_EDGE ( 'NONE', *, *, #36, .F. ) ;
#10 = DIRECTION ( 'NONE',  ( 1.000000000000000000, 0.0000000000000000000, 0.0000000000000000000 ) ) ;
#11 = PERSON_AND_ORGANIZATION_ROLE ( 'design_supplier' ) ;
#12 = CARTESIAN_POINT ( 'NONE',  ( 0.0000000000000000000, 0.0000000000000000000, 3.000000000000000000 ) ) ;
#13 = DATE_TIME_ROLE ( 'creation_date' ) ;
#14 = APPROVAL_DATE_TIME ( #162, #93 ) ;
#15 = LINE ( 'NONE', #230, #193 ) ;
#16 = PRODUCT_DEFINITION ( 'UNKNOWN', '', #172, #208 ) ;
#17 = LOCAL_TIME ( 9, 0, 29.00000000000000000, #65 ) ;
#18 = ORIENTED_EDGE ( 'NONE', *, *, #229, .T. ) ;
#19 = LINE ( 'NONE', #225, #212 ) ;
#20 = CC_DESIGN_PERSON_AND_ORGANIZATION_ASSIGNMENT ( #176, #11, ( #172 ) ) ;
#21 = ORIENTED_EDGE ( 'NONE', *, *, #126, .T. ) ;
#22 = ORIENTED_EDGE ( 'NONE', *, *, #133, .T. ) ;
#23 = DIRECTION ( 'NONE',  ( 0.0000000000000000000, 1.000000000000000000, 0.0000000000000000000 ) ) ;
#24 = DIRECTION ( 'NONE',  ( -1.365923996832131600E-016, 1.000000000000000000, 0.0000000000000000000 ) ) ;
#25 = CARTESIAN_POINT ( 'NONE',  ( 6.349999999999998800, -6.349999999999998800, -3.000000000000000000 ) ) ;
#26 = DATE_AND_TIME ( #75, #124 ) ;
#27 = CARTESIAN_POINT ( 'NONE',  ( -6.350000000000000500, -6.350000000000000500, 3.000000000000000000 ) ) ;
#28 = DIRECTION ( 'NONE',  ( 0.0000000000000000000, 0.0000000000000000000, 1.000000000000000000 ) ) ;
#29 = SECURITY_CLASSIFICATION_LEVEL ( 'unclassified' ) ;
#30 = VECTOR ( 'NONE', #23, 1000.000000000000000 ) ;
#31 = PERSON_AND_ORGANIZATION_ROLE ( 'creator' ) ;
#32 = DIRECTION ( 'NONE',  ( 1.365923996832131600E-016, -1.000000000000000000, 0.0000000000000000000 ) ) ;
#33 = CARTESIAN_POINT ( 'NONE',  ( -6.350000000000000500, -6.350000000000000500, -3.000000000000000000 ) ) ;
#34 = CALENDAR_DATE ( 2017, 30, 10 ) ;
#35 = FACE_OUTER_BOUND ( 'NONE', #150, .T. ) ;
#36 = EDGE_CURVE ( 'NONE', #72, #237, #50, .T. ) ;
#37 = UNCERTAINTY_MEASURE_WITH_UNIT (LENGTH_MEASURE( 1.000000000000000100E-005 ), #51, 'distance_accuracy_value', 'NONE');
#38 = ORIENTED_EDGE ( 'NONE', *, *, #133, .F. ) ;
#39 = PERSON_AND_ORGANIZATION ( #189, #131 ) ;
#40 = VECTOR ( 'NONE', #67, 1000.000000000000000 ) ;
#41 = ORIENTED_EDGE ( 'NONE', *, *, #191, .F. ) ;
#42 = DIRECTION ( 'NONE',  ( -0.0000000000000000000, -1.000000000000000000, -0.0000000000000000000 ) ) ;
#43 = LOCAL_TIME ( 9, 0, 29.00000000000000000, #153 ) ;
#44 = PLANE ( 'NONE',  #81 ) ;
#45 = APPROVAL_STATUS ( 'not_yet_approved' ) ;
#46 = ORIENTED_EDGE ( 'NONE', *, *, #140, .T. ) ;
#47 =( NAMED_UNIT ( * ) PLANE_ANGLE_UNIT ( ) SI_UNIT ( $, .RADIAN. ) );
#48 = DIRECTION ( 'NONE',  ( -0.0000000000000000000, -0.0000000000000000000, -1.000000000000000000 ) ) ;
#49 = LOCAL_TIME ( 9, 0, 29.00000000000000000, #226 ) ;
#50 = LINE ( 'NONE', #180, #114 ) ;
#51 =( LENGTH_UNIT ( ) NAMED_UNIT ( * ) SI_UNIT ( .MILLI., .METRE. ) );
#52 = PRODUCT_RELATED_PRODUCT_CATEGORY ( 'detail', '', ( #74 ) ) ;
#53 = EDGE_CURVE ( 'NONE', #95, #207, #188, .T. ) ;
#54 = LINE ( 'NONE', #165, #168 ) ;
#55 = EDGE_LOOP ( 'NONE', ( #46, #9, #38, #85 ) ) ;
#56 = PERSON_AND_ORGANIZATION ( #189, #131 ) ;
#57 = ORIENTED_EDGE ( 'NONE', *, *, #92, .F. ) ;
#58 = CC_DESIGN_APPROVAL ( #144, ( #94 ) ) ;
#59 = EDGE_LOOP ( 'NONE', ( #21, #200, #167, #214 ) ) ;
#60 = EDGE_CURVE ( 'NONE', #72, #127, #2, .T. ) ;
#61 = CARTESIAN_POINT ( 'NONE',  ( 6.349999999999998800, 6.350000000000000500, 3.000000000000000000 ) ) ;
#62 = LINE ( 'NONE', #61, #204 ) ;
#63 = CARTESIAN_POINT ( 'NONE',  ( 6.349999999999998800, -6.349999999999998800, 3.000000000000000000 ) ) ;
#64 = ADVANCED_FACE ( 'NONE', ( #5 ), #44, .F. ) ;
#65 = COORDINATED_UNIVERSAL_TIME_OFFSET ( 5, 0, .BEHIND. ) ;
#66 = VERTEX_POINT ( 'NONE', #8 ) ;
#67 = DIRECTION ( 'NONE',  ( -1.000000000000000000, -1.365923996832131600E-016, 0.0000000000000000000 ) ) ;
#68 = PLANE ( 'NONE',  #235 ) ;
#69 = ORIENTED_EDGE ( 'NONE', *, *, #159, .T. ) ;
#70 = PLANE ( 'NONE',  #215 ) ;
#71 = ORIENTED_EDGE ( 'NONE', *, *, #36, .T. ) ;
#72 = VERTEX_POINT ( 'NONE', #115 ) ;
#73 =( GEOMETRIC_REPRESENTATION_CONTEXT ( 3 ) GLOBAL_UNCERTAINTY_ASSIGNED_CONTEXT ( ( #37 ) ) GLOBAL_UNIT_ASSIGNED_CONTEXT ( ( #51, #47, #187 ) ) REPRESENTATION_CONTEXT ( 'NONE', 'WORKASPACE' ) );
#74 = PRODUCT ( 'Web Model 64397MX_43745', 'Web Model 64397MX_43745', '', ( #219 ) ) ;
#75 = CALENDAR_DATE ( 2017, 30, 10 ) ;
#76 = PERSON_AND_ORGANIZATION ( #189, #131 ) ;
#77 = FACE_OUTER_BOUND ( 'NONE', #218, .T. ) ;
#78 = CC_DESIGN_SECURITY_CLASSIFICATION ( #94, ( #172 ) ) ;
#79 = CARTESIAN_POINT ( 'NONE',  ( 6.349999999999998800, -6.349999999999998800, 3.000000000000000000 ) ) ;
#80 = ADVANCED_FACE ( 'NONE', ( #122 ), #155, .F. ) ;
#81 = AXIS2_PLACEMENT_3D ( 'NONE', #27, #129, #213 ) ;
#82 = DIRECTION ( 'NONE',  ( -0.0000000000000000000, -1.000000000000000000, -0.0000000000000000000 ) ) ;
#83 = APPLICATION_PROTOCOL_DEFINITION ( 'international standard', 'config_control_design', 1994, #86 ) ;
#84 = DIRECTION ( 'NONE',  ( 1.000000000000000000, 1.365923996832131600E-016, -0.0000000000000000000 ) ) ;
#85 = ORIENTED_EDGE ( 'NONE', *, *, #53, .T. ) ;
#86 = APPLICATION_CONTEXT ( 'configuration controlled 3d designs of mechanical parts and assemblies' ) ;
#87 = AXIS2_PLACEMENT_3D ( 'NONE', #139, #136, #103 ) ;
#88 = DIRECTION ( 'NONE',  ( 1.000000000000000000, 0.0000000000000000000, -0.0000000000000000000 ) ) ;
#89 = APPROVAL_ROLE ( '' ) ;
#90 = LOCAL_TIME ( 9, 0, 29.00000000000000000, #236 ) ;
#91 = LINE ( 'NONE', #101, #30 ) ;
#92 = EDGE_CURVE ( 'NONE', #127, #111, #19, .T. ) ;
#93 = APPROVAL ( #45, 'UNSPECIFIED' ) ;
#94 = SECURITY_CLASSIFICATION ( '', '', #29 ) ;
#95 = VERTEX_POINT ( 'NONE', #4 ) ;
#96 = APPROVAL_PERSON_ORGANIZATION ( #156, #93, #117 ) ;
#97 = CC_DESIGN_PERSON_AND_ORGANIZATION_ASSIGNMENT ( #76, #31, ( #16 ) ) ;
#98 = VECTOR ( 'NONE', #99, 1000.000000000000000 ) ;
#99 = DIRECTION ( 'NONE',  ( -0.0000000000000000000, -0.0000000000000000000, -1.000000000000000000 ) ) ;
#100 = ADVANCED_FACE ( 'NONE', ( #77 ), #113, .F. ) ;
#101 = CARTESIAN_POINT ( 'NONE',  ( 6.349999999999998800, -6.349999999999998800, -3.000000000000000000 ) ) ;
#102 = CC_DESIGN_APPROVAL ( #148, ( #16 ) ) ;
#103 = DIRECTION ( 'NONE',  ( 1.000000000000000000, 0.0000000000000000000, -0.0000000000000000000 ) ) ;
#104 = EDGE_LOOP ( 'NONE', ( #22, #157, #69, #18 ) ) ;
#105 = APPROVAL_STATUS ( 'not_yet_approved' ) ;
#106 = DIRECTION ( 'NONE',  ( 1.000000000000000000, 1.365923996832131600E-016, 0.0000000000000000000 ) ) ;
#107 = APPLICATION_CONTEXT ( 'configuration controlled 3d designs of mechanical parts and assemblies' ) ;
#108 = DATE_AND_TIME ( #206, #43 ) ;
#109 = ORIENTED_EDGE ( 'NONE', *, *, #140, .F. ) ;
#110 = CC_DESIGN_DATE_AND_TIME_ASSIGNMENT ( #192, #13, ( #16 ) ) ;
#111 = VERTEX_POINT ( 'NONE', #25 ) ;
#112 = CC_DESIGN_PERSON_AND_ORGANIZATION_ASSIGNMENT ( #222, #181, ( #172 ) ) ;
#113 = PLANE ( 'NONE',  #151 ) ;
#114 = VECTOR ( 'NONE', #7, 1000.000000000000000 ) ;
#115 = CARTESIAN_POINT ( 'NONE',  ( -6.350000000000000500, -6.350000000000000500, 3.000000000000000000 ) ) ;
#116 = CARTESIAN_POINT ( 'NONE',  ( -6.350000000000000500, 6.349999999999998800, 3.000000000000000000 ) ) ;
#117 = APPROVAL_ROLE ( '' ) ;
#118 = LINE ( 'NONE', #202, #149 ) ;
#119 = CARTESIAN_POINT ( 'NONE',  ( -6.350000000000000500, 6.349999999999998800, -3.000000000000000000 ) ) ;
#120 = APPROVAL_PERSON_ORGANIZATION ( #177, #148, #232 ) ;
#121 = COORDINATED_UNIVERSAL_TIME_OFFSET ( 5, 0, .BEHIND. ) ;
#122 = FACE_OUTER_BOUND ( 'NONE', #59, .T. ) ;
#123 = MANIFOLD_SOLID_BREP ( 'Boss-Extrude1', #142 ) ;
#124 = LOCAL_TIME ( 9, 0, 29.00000000000000000, #121 ) ;
#125 = AXIS2_PLACEMENT_3D ( 'NONE', #231, #28, #10 ) ;
#126 = EDGE_CURVE ( 'NONE', #111, #66, #91, .T. ) ;
#127 = VERTEX_POINT ( 'NONE', #79 ) ;
#128 = CC_DESIGN_PERSON_AND_ORGANIZATION_ASSIGNMENT ( #39, #182, ( #94 ) ) ;
#129 = DIRECTION ( 'NONE',  ( 1.000000000000000000, 0.0000000000000000000, 0.0000000000000000000 ) ) ;
#130 = DIRECTION ( 'NONE',  ( -0.0000000000000000000, -0.0000000000000000000, -1.000000000000000000 ) ) ;
#131 = ORGANIZATION ( 'UNSPECIFIED', 'UNSPECIFIED', '' ) ;
#132 = DIRECTION ( 'NONE',  ( 0.0000000000000000000, 0.0000000000000000000, 1.000000000000000000 ) ) ;
#133 = EDGE_CURVE ( 'NONE', #95, #72, #143, .T. ) ;
#134 = VECTOR ( 'NONE', #216, 1000.000000000000000 ) ;
#135 = ORIENTED_EDGE ( 'NONE', *, *, #169, .F. ) ;
#136 = DIRECTION ( 'NONE',  ( 0.0000000000000000000, -0.0000000000000000000, 1.000000000000000000 ) ) ;
#137 = PERSON_AND_ORGANIZATION_ROLE ( 'design_owner' ) ;
#138 = DIRECTION ( 'NONE',  ( -1.000000000000000000, -1.365923996832131600E-016, 0.0000000000000000000 ) ) ;
#139 = CARTESIAN_POINT ( 'NONE',  ( 0.0000000000000000000, 0.0000000000000000000, -3.000000000000000000 ) ) ;
#140 = EDGE_CURVE ( 'NONE', #207, #237, #15, .T. ) ;
#141 = APPROVAL_DATE_TIME ( #195, #144 ) ;
#142 = CLOSED_SHELL ( 'NONE', ( #64, #100, #80, #196, #174, #217 ) ) ;
#143 = LINE ( 'NONE', #152, #173 ) ;
#144 = APPROVAL ( #161, 'UNSPECIFIED' ) ;
#145 = ORIENTED_EDGE ( 'NONE', *, *, #60, .F. ) ;
#146 = ADVANCED_BREP_SHAPE_REPRESENTATION ( 'Web Model 64397MX_43745', ( #123, #125 ), #73 ) ;
#147 = EDGE_CURVE ( 'NONE', #163, #66, #62, .T. ) ;
#148 = APPROVAL ( #105, 'UNSPECIFIED' ) ;
#149 = VECTOR ( 'NONE', #84, 1000.000000000000000 ) ;
#150 = EDGE_LOOP ( 'NONE', ( #109, #135, #224, #41 ) ) ;
#151 = AXIS2_PLACEMENT_3D ( 'NONE', #178, #24, #198 ) ;
#152 = CARTESIAN_POINT ( 'NONE',  ( -6.350000000000000500, -6.350000000000000500, 3.000000000000000000 ) ) ;
#153 = COORDINATED_UNIVERSAL_TIME_OFFSET ( 5, 0, .BEHIND. ) ;
#154 = LINE ( 'NONE', #201, #134 ) ;
#155 = PLANE ( 'NONE',  #6 ) ;
#156 = PERSON_AND_ORGANIZATION ( #189, #131 ) ;
#157 = ORIENTED_EDGE ( 'NONE', *, *, #60, .T. ) ;
#158 = APPLICATION_PROTOCOL_DEFINITION ( 'international standard', 'config_control_design', 1994, #107 ) ;
#159 = EDGE_CURVE ( 'NONE', #127, #163, #154, .T. ) ;
#160 = DATE_TIME_ROLE ( 'classification_date' ) ;
#161 = APPROVAL_STATUS ( 'not_yet_approved' ) ;
#162 = DATE_AND_TIME ( #34, #90 ) ;
#163 = VERTEX_POINT ( 'NONE', #186 ) ;
#164 = CARTESIAN_POINT ( 'NONE',  ( 6.349999999999998800, 6.350000000000000500, 3.000000000000000000 ) ) ;
#165 = CARTESIAN_POINT ( 'NONE',  ( 6.349999999999998800, 6.350000000000000500, -3.000000000000000000 ) ) ;
#166 = CC_DESIGN_APPROVAL ( #93, ( #172 ) ) ;
#167 = ORIENTED_EDGE ( 'NONE', *, *, #159, .F. ) ;
#168 = VECTOR ( 'NONE', #138, 1000.000000000000000 ) ;
#169 = EDGE_CURVE ( 'NONE', #66, #207, #54, .T. ) ;
#170 = ORIENTED_EDGE ( 'NONE', *, *, #147, .T. ) ;
#171 = FACE_OUTER_BOUND ( 'NONE', #233, .T. ) ;
#172 = PRODUCT_DEFINITION_FORMATION_WITH_SPECIFIED_SOURCE ( 'ANY', '', #74, .NOT_KNOWN. ) ;
#173 = VECTOR ( 'NONE', #82, 1000.000000000000000 ) ;
#174 = ADVANCED_FACE ( 'NONE', ( #183 ), #70, .T. ) ;
#175 = DIRECTION ( 'NONE',  ( -1.000000000000000000, 0.0000000000000000000, 0.0000000000000000000 ) ) ;
#176 = PERSON_AND_ORGANIZATION ( #189, #131 ) ;
#177 = PERSON_AND_ORGANIZATION ( #189, #131 ) ;
#178 = CARTESIAN_POINT ( 'NONE',  ( 6.349999999999998800, -6.349999999999998800, 3.000000000000000000 ) ) ;
#179 = CC_DESIGN_DATE_AND_TIME_ASSIGNMENT ( #108, #160, ( #94 ) ) ;
#180 = CARTESIAN_POINT ( 'NONE',  ( -6.350000000000000500, -6.350000000000000500, 3.000000000000000000 ) ) ;
#181 = PERSON_AND_ORGANIZATION_ROLE ( 'creator' ) ;
#182 = PERSON_AND_ORGANIZATION_ROLE ( 'classification_officer' ) ;
#183 = FACE_OUTER_BOUND ( 'NONE', #104, .T. ) ;
#184 = ORIENTED_EDGE ( 'NONE', *, *, #229, .F. ) ;
#185 = CARTESIAN_POINT ( 'NONE',  ( 6.349999999999998800, 6.350000000000000500, 3.000000000000000000 ) ) ;
#186 = CARTESIAN_POINT ( 'NONE',  ( 6.349999999999998800, 6.350000000000000500, 3.000000000000000000 ) ) ;
#187 =( NAMED_UNIT ( * ) SI_UNIT ( $, .STERADIAN. ) SOLID_ANGLE_UNIT ( ) );
#188 = LINE ( 'NONE', #116, #98 ) ;
#189 = PERSON ( 'UNSPECIFIED', 'UNSPECIFIED', 'UNSPECIFIED', ('UNSPECIFIED'), ('UNSPECIFIED'), ('UNSPECIFIED') ) ;
#190 = APPROVAL_PERSON_ORGANIZATION ( #56, #144, #89 ) ;
#191 = EDGE_CURVE ( 'NONE', #237, #111, #118, .T. ) ;
#192 = DATE_AND_TIME ( #209, #17 ) ;
#193 = VECTOR ( 'NONE', #42, 1000.000000000000000 ) ;
#194 = CC_DESIGN_PERSON_AND_ORGANIZATION_ASSIGNMENT ( #227, #137, ( #74 ) ) ;
#195 = DATE_AND_TIME ( #203, #49 ) ;
#196 = ADVANCED_FACE ( 'NONE', ( #171 ), #68, .F. ) ;
#197 = VECTOR ( 'NONE', #228, 1000.000000000000000 ) ;
#198 = DIRECTION ( 'NONE',  ( -1.000000000000000000, -1.365923996832131600E-016, 0.0000000000000000000 ) ) ;
#199 = SHAPE_DEFINITION_REPRESENTATION ( #1, #146 ) ;
#200 = ORIENTED_EDGE ( 'NONE', *, *, #147, .F. ) ;
#201 = CARTESIAN_POINT ( 'NONE',  ( 6.349999999999998800, -6.349999999999998800, 3.000000000000000000 ) ) ;
#202 = CARTESIAN_POINT ( 'NONE',  ( 6.349999999999998800, -6.349999999999998800, -3.000000000000000000 ) ) ;
#203 = CALENDAR_DATE ( 2017, 30, 10 ) ;
#204 = VECTOR ( 'NONE', #48, 1000.000000000000000 ) ;
#205 = ORIENTED_EDGE ( 'NONE', *, *, #191, .T. ) ;
#206 = CALENDAR_DATE ( 2017, 30, 10 ) ;
#207 = VERTEX_POINT ( 'NONE', #119 ) ;
#208 = DESIGN_CONTEXT ( 'detailed design', #107, 'design' ) ;
#209 = CALENDAR_DATE ( 2017, 30, 10 ) ;
#210 = ORIENTED_EDGE ( 'NONE', *, *, #169, .T. ) ;
#211 = CARTESIAN_POINT ( 'NONE',  ( 6.349999999999998800, -6.349999999999998800, 3.000000000000000000 ) ) ;
#212 = VECTOR ( 'NONE', #130, 1000.000000000000000 ) ;
#213 = DIRECTION ( 'NONE',  ( 0.0000000000000000000, 0.0000000000000000000, -1.000000000000000000 ) ) ;
#214 = ORIENTED_EDGE ( 'NONE', *, *, #92, .T. ) ;
#215 = AXIS2_PLACEMENT_3D ( 'NONE', #12, #234, #88 ) ;
#216 = DIRECTION ( 'NONE',  ( 0.0000000000000000000, 1.000000000000000000, 0.0000000000000000000 ) ) ;
#217 = ADVANCED_FACE ( 'NONE', ( #35 ), #220, .F. ) ;
#218 = EDGE_LOOP ( 'NONE', ( #205, #57, #145, #71 ) ) ;
#219 = MECHANICAL_CONTEXT ( 'NONE', #86, 'mechanical' ) ;
#220 = PLANE ( 'NONE',  #87 ) ;
#221 = APPROVAL_DATE_TIME ( #26, #148 ) ;
#222 = PERSON_AND_ORGANIZATION ( #189, #131 ) ;
#223 = LINE ( 'NONE', #185, #40 ) ;
#224 = ORIENTED_EDGE ( 'NONE', *, *, #126, .F. ) ;
#225 = CARTESIAN_POINT ( 'NONE',  ( 6.349999999999998800, -6.349999999999998800, 3.000000000000000000 ) ) ;
#226 = COORDINATED_UNIVERSAL_TIME_OFFSET ( 5, 0, .BEHIND. ) ;
#227 = PERSON_AND_ORGANIZATION ( #189, #131 ) ;
#228 = DIRECTION ( 'NONE',  ( 1.000000000000000000, 1.365923996832131600E-016, -0.0000000000000000000 ) ) ;
#229 = EDGE_CURVE ( 'NONE', #163, #95, #223, .T. ) ;
#230 = CARTESIAN_POINT ( 'NONE',  ( -6.350000000000000500, -6.350000000000000500, -3.000000000000000000 ) ) ;
#231 = CARTESIAN_POINT ( 'NONE',  ( 0.0000000000000000000, 0.0000000000000000000, 0.0000000000000000000 ) ) ;
#232 = APPROVAL_ROLE ( '' ) ;
#233 = EDGE_LOOP ( 'NONE', ( #210, #3, #184, #170 ) ) ;
#234 = DIRECTION ( 'NONE',  ( 0.0000000000000000000, -0.0000000000000000000, 1.000000000000000000 ) ) ;
#235 = AXIS2_PLACEMENT_3D ( 'NONE', #164, #32, #106 ) ;
#236 = COORDINATED_UNIVERSAL_TIME_OFFSET ( 5, 0, .BEHIND. ) ;
#237 = VERTEX_POINT ( 'NONE', #33 ) ;
ENDSEC;
END-ISO-10303-21;
