ISO-10303-21;
HEADER;
FILE_DESCRIPTION (( 'STEP AP203' ),
    '1' );
FILE_NAME ('Web Model 43927_46628.step',
    '2017-04-24T19:43:46',
    ( '' ),
    ( '' ),
    'SwSTEP 2.0',
    'SolidWorks 2016',
    '' );
FILE_SCHEMA (( 'CONFIG_CONTROL_DESIGN' ));
ENDSEC;

DATA;
#1 = DATE_TIME_ROLE ( 'classification_date' ) ;
#2 = PRODUCT_RELATED_PRODUCT_CATEGORY ( 'detail', '', ( #85 ) ) ;
#3 = APPROVAL_STATUS ( 'not_yet_approved' ) ;
#4 = PERSON_AND_ORGANIZATION ( #143, #50 ) ;
#5 = DATE_AND_TIME ( #7, #8 ) ;
#6 = ADVANCED_FACE ( 'NONE', ( #171 ), #169, .F. ) ;
#7 = CALENDAR_DATE ( 2017, 24, 4 ) ;
#8 = LOCAL_TIME ( 15, 43, 46.00000000000000000, #10 ) ;
#9 = CALENDAR_DATE ( 2017, 24, 4 ) ;
#10 = COORDINATED_UNIVERSAL_TIME_OFFSET ( 5, 0, .BEHIND. ) ;
#11 = CC_DESIGN_PERSON_AND_ORGANIZATION_ASSIGNMENT ( #31, #135, ( #85 ) ) ;
#12 = DATE_AND_TIME ( #29, #186 ) ;
#13 = CALENDAR_DATE ( 2017, 24, 4 ) ;
#14 = CC_DESIGN_SECURITY_CLASSIFICATION ( #115, ( #224 ) ) ;
#15 = LOCAL_TIME ( 15, 43, 46.00000000000000000, #16 ) ;
#16 = COORDINATED_UNIVERSAL_TIME_OFFSET ( 5, 0, .BEHIND. ) ;
#17 = APPROVAL_PERSON_ORGANIZATION ( #20, #189, #233 ) ;
#18 = APPROVAL_ROLE ( '' ) ;
#19 = DIRECTION ( 'NONE',  ( -0.0000000000000000000, -0.0000000000000000000, -1.000000000000000000 ) ) ;
#20 = PERSON_AND_ORGANIZATION ( #143, #50 ) ;
#21 = CARTESIAN_POINT ( 'NONE',  ( 88.89999999999996300, -63.50000000000001400, 0.7500000000000000000 ) ) ;
#22 = AXIS2_PLACEMENT_3D ( 'NONE', #214, #110, #125 ) ;
#23 = DESIGN_CONTEXT ( 'detailed design', #198, 'design' ) ;
#24 = DIRECTION ( 'NONE',  ( 0.0000000000000000000, -0.0000000000000000000, 1.000000000000000000 ) ) ;
#25 = EDGE_CURVE ( 'NONE', #86, #170, #64, .T. ) ;
#26 = DIRECTION ( 'NONE',  ( 1.000000000000000000, 0.0000000000000000000, -0.0000000000000000000 ) ) ;
#27 = CC_DESIGN_PERSON_AND_ORGANIZATION_ASSIGNMENT ( #229, #43, ( #115 ) ) ;
#28 = ADVANCED_FACE ( 'NONE', ( #215 ), #120, .T. ) ;
#29 = CALENDAR_DATE ( 2017, 24, 4 ) ;
#30 = CARTESIAN_POINT ( 'NONE',  ( 88.89999999999997700, 63.49999999999998600, -0.7500000000000000000 ) ) ;
#31 = PERSON_AND_ORGANIZATION ( #143, #50 ) ;
#32 = APPROVAL_DATE_TIME ( #36, #189 ) ;
#33 = DIRECTION ( 'NONE',  ( 1.000000000000000000, 7.805279981897893700E-017, -0.0000000000000000000 ) ) ;
#34 = CARTESIAN_POINT ( 'NONE',  ( 88.89999999999997700, 63.49999999999998600, 0.7500000000000000000 ) ) ;
#35 = CARTESIAN_POINT ( 'NONE',  ( -88.90000000000003400, -63.50000000000002800, 0.7500000000000000000 ) ) ;
#36 = DATE_AND_TIME ( #13, #15 ) ;
#37 = CARTESIAN_POINT ( 'NONE',  ( -88.90000000000003400, -63.50000000000002800, 0.7500000000000000000 ) ) ;
#38 = APPROVAL_STATUS ( 'not_yet_approved' ) ;
#39 = PLANE ( 'NONE',  #225 ) ;
#40 = LINE ( 'NONE', #41, #168 ) ;
#41 = CARTESIAN_POINT ( 'NONE',  ( 88.89999999999996300, -63.50000000000001400, -0.7500000000000000000 ) ) ;
#42 = DIRECTION ( 'NONE',  ( 1.000000000000000000, 7.805279981897893700E-017, -0.0000000000000000000 ) ) ;
#43 = PERSON_AND_ORGANIZATION_ROLE ( 'classification_officer' ) ;
#44 = FACE_OUTER_BOUND ( 'NONE', #157, .T. ) ;
#45 = ORIENTED_EDGE ( 'NONE', *, *, #144, .F. ) ;
#46 = LINE ( 'NONE', #78, #205 ) ;
#47 = LINE ( 'NONE', #184, #51 ) ;
#48 = SHAPE_DEFINITION_REPRESENTATION ( #151, #98 ) ;
#49 = VECTOR ( 'NONE', #104, 1000.000000000000000 ) ;
#50 = ORGANIZATION ( 'UNSPECIFIED', 'UNSPECIFIED', '' ) ;
#51 = VECTOR ( 'NONE', #33, 1000.000000000000000 ) ;
#52 = DIRECTION ( 'NONE',  ( 1.092739197465705300E-016, 1.000000000000000000, 0.0000000000000000000 ) ) ;
#53 = ORIENTED_EDGE ( 'NONE', *, *, #144, .T. ) ;
#54 = DIRECTION ( 'NONE',  ( -0.0000000000000000000, -0.0000000000000000000, -1.000000000000000000 ) ) ;
#55 = DIRECTION ( 'NONE',  ( -1.000000000000000000, 1.092739197465705200E-016, 0.0000000000000000000 ) ) ;
#56 = VECTOR ( 'NONE', #106, 1000.000000000000000 ) ;
#57 = DIRECTION ( 'NONE',  ( -1.092739197465705200E-016, -1.000000000000000000, 0.0000000000000000000 ) ) ;
#58 = LINE ( 'NONE', #194, #49 ) ;
#59 = FACE_OUTER_BOUND ( 'NONE', #163, .T. ) ;
#60 = CC_DESIGN_DATE_AND_TIME_ASSIGNMENT ( #5, #137, ( #206 ) ) ;
#61 = CC_DESIGN_APPROVAL ( #142, ( #115 ) ) ;
#62 = VECTOR ( 'NONE', #213, 1000.000000000000000 ) ;
#63 = LINE ( 'NONE', #195, #56 ) ;
#64 = LINE ( 'NONE', #30, #133 ) ;
#65 = DATE_AND_TIME ( #172, #117 ) ;
#66 = FACE_OUTER_BOUND ( 'NONE', #208, .T. ) ;
#67 = UNCERTAINTY_MEASURE_WITH_UNIT (LENGTH_MEASURE( 1.000000000000000100E-005 ), #121, 'distance_accuracy_value', 'NONE');
#68 = ORIENTED_EDGE ( 'NONE', *, *, #113, .T. ) ;
#69 = PERSON_AND_ORGANIZATION ( #143, #50 ) ;
#70 = VECTOR ( 'NONE', #52, 1000.000000000000000 ) ;
#71 = COORDINATED_UNIVERSAL_TIME_OFFSET ( 5, 0, .BEHIND. ) ;
#72 = DIRECTION ( 'NONE',  ( -1.000000000000000000, -7.805279981897893700E-017, 0.0000000000000000000 ) ) ;
#73 = ORIENTED_EDGE ( 'NONE', *, *, #228, .F. ) ;
#74 = DIRECTION ( 'NONE',  ( 7.805279981897892400E-017, -1.000000000000000000, 0.0000000000000000000 ) ) ;
#75 = ORIENTED_EDGE ( 'NONE', *, *, #113, .F. ) ;
#76 = CARTESIAN_POINT ( 'NONE',  ( 88.89999999999997700, 63.49999999999998600, 0.7500000000000000000 ) ) ;
#77 = DIRECTION ( 'NONE',  ( 0.0000000000000000000, 0.0000000000000000000, -1.000000000000000000 ) ) ;
#78 = CARTESIAN_POINT ( 'NONE',  ( -88.90000000000003400, -63.50000000000002800, -0.7500000000000000000 ) ) ;
#79 = APPLICATION_PROTOCOL_DEFINITION ( 'international standard', 'config_control_design', 1994, #140 ) ;
#80 = EDGE_CURVE ( 'NONE', #174, #147, #47, .T. ) ;
#81 = VERTEX_POINT ( 'NONE', #34 ) ;
#82 = CARTESIAN_POINT ( 'NONE',  ( -88.90000000000003400, 63.49999999999997200, 0.7500000000000000000 ) ) ;
#83 = ORIENTED_EDGE ( 'NONE', *, *, #80, .F. ) ;
#84 = COORDINATED_UNIVERSAL_TIME_OFFSET ( 5, 0, .BEHIND. ) ;
#85 = PRODUCT ( 'Web Model 43927_46628', 'Web Model 43927_46628', '', ( #178 ) ) ;
#86 = VERTEX_POINT ( 'NONE', #154 ) ;
#87 = EDGE_CURVE ( 'NONE', #147, #220, #162, .T. ) ;
#88 = ORIENTED_EDGE ( 'NONE', *, *, #173, .F. ) ;
#89 = DIRECTION ( 'NONE',  ( -1.000000000000000000, -7.805279981897892400E-017, 0.0000000000000000000 ) ) ;
#90 = CC_DESIGN_PERSON_AND_ORGANIZATION_ASSIGNMENT ( #128, #231, ( #206 ) ) ;
#91 = CARTESIAN_POINT ( 'NONE',  ( 88.89999999999996300, -63.50000000000001400, 0.7500000000000000000 ) ) ;
#92 = CARTESIAN_POINT ( 'NONE',  ( -88.90000000000003400, 63.49999999999997200, 0.7500000000000000000 ) ) ;
#93 = DIRECTION ( 'NONE',  ( 1.000000000000000000, 0.0000000000000000000, -0.0000000000000000000 ) ) ;
#94 = DIRECTION ( 'NONE',  ( -0.0000000000000000000, -0.0000000000000000000, -1.000000000000000000 ) ) ;
#95 = ORIENTED_EDGE ( 'NONE', *, *, #200, .T. ) ;
#96 = CARTESIAN_POINT ( 'NONE',  ( 88.89999999999996300, -63.50000000000001400, -0.7500000000000000000 ) ) ;
#97 = CARTESIAN_POINT ( 'NONE',  ( 88.89999999999996300, -63.50000000000001400, 0.7500000000000000000 ) ) ;
#98 = ADVANCED_BREP_SHAPE_REPRESENTATION ( 'Web Model 43927_46628', ( #217, #22 ), #141 ) ;
#99 = ADVANCED_FACE ( 'NONE', ( #44 ), #237, .F. ) ;
#100 = DATE_AND_TIME ( #9, #165 ) ;
#101 = DIRECTION ( 'NONE',  ( 0.0000000000000000000, -0.0000000000000000000, 1.000000000000000000 ) ) ;
#102 = VECTOR ( 'NONE', #94, 1000.000000000000000 ) ;
#103 = EDGE_CURVE ( 'NONE', #185, #220, #40, .T. ) ;
#104 = DIRECTION ( 'NONE',  ( 1.092739197465705300E-016, 1.000000000000000000, 0.0000000000000000000 ) ) ;
#105 = SECURITY_CLASSIFICATION_LEVEL ( 'unclassified' ) ;
#106 = DIRECTION ( 'NONE',  ( -0.0000000000000000000, -0.0000000000000000000, -1.000000000000000000 ) ) ;
#107 = VECTOR ( 'NONE', #158, 1000.000000000000000 ) ;
#108 = PERSON_AND_ORGANIZATION_ROLE ( 'design_supplier' ) ;
#109 =( NAMED_UNIT ( * ) PLANE_ANGLE_UNIT ( ) SI_UNIT ( $, .RADIAN. ) );
#110 = DIRECTION ( 'NONE',  ( 0.0000000000000000000, 0.0000000000000000000, 1.000000000000000000 ) ) ;
#111 = CARTESIAN_POINT ( 'NONE',  ( 88.89999999999996300, -63.50000000000001400, -0.7500000000000000000 ) ) ;
#112 = ADVANCED_FACE ( 'NONE', ( #150 ), #39, .F. ) ;
#113 = EDGE_CURVE ( 'NONE', #126, #170, #234, .T. ) ;
#114 = LINE ( 'NONE', #76, #212 ) ;
#115 = SECURITY_CLASSIFICATION ( '', '', #105 ) ;
#116 = AXIS2_PLACEMENT_3D ( 'NONE', #149, #187, #89 ) ;
#117 = LOCAL_TIME ( 15, 43, 46.00000000000000000, #71 ) ;
#118 = EDGE_CURVE ( 'NONE', #81, #86, #114, .T. ) ;
#119 = APPROVAL_DATE_TIME ( #100, #218 ) ;
#120 = PLANE ( 'NONE',  #156 ) ;
#121 =( LENGTH_UNIT ( ) NAMED_UNIT ( * ) SI_UNIT ( .MILLI., .METRE. ) );
#122 = DIRECTION ( 'NONE',  ( 1.000000000000000000, 0.0000000000000000000, 0.0000000000000000000 ) ) ;
#123 = DIRECTION ( 'NONE',  ( 1.000000000000000000, 7.805279981897892400E-017, 0.0000000000000000000 ) ) ;
#124 = APPROVAL_ROLE ( '' ) ;
#125 = DIRECTION ( 'NONE',  ( 1.000000000000000000, 0.0000000000000000000, 0.0000000000000000000 ) ) ;
#126 = VERTEX_POINT ( 'NONE', #82 ) ;
#127 = CC_DESIGN_PERSON_AND_ORGANIZATION_ASSIGNMENT ( #134, #108, ( #224 ) ) ;
#128 = PERSON_AND_ORGANIZATION ( #143, #50 ) ;
#129 = PERSON_AND_ORGANIZATION ( #143, #50 ) ;
#130 = APPROVAL_PERSON_ORGANIZATION ( #4, #218, #124 ) ;
#131 = EDGE_CURVE ( 'NONE', #220, #86, #196, .T. ) ;
#132 = APPLICATION_PROTOCOL_DEFINITION ( 'international standard', 'config_control_design', 1994, #198 ) ;
#133 = VECTOR ( 'NONE', #72, 1000.000000000000000 ) ;
#134 = PERSON_AND_ORGANIZATION ( #143, #50 ) ;
#135 = PERSON_AND_ORGANIZATION_ROLE ( 'design_owner' ) ;
#136 =( NAMED_UNIT ( * ) SI_UNIT ( $, .STERADIAN. ) SOLID_ANGLE_UNIT ( ) );
#137 = DATE_TIME_ROLE ( 'creation_date' ) ;
#138 = DIRECTION ( 'NONE',  ( -0.0000000000000000000, -1.000000000000000000, -0.0000000000000000000 ) ) ;
#139 = PERSON_AND_ORGANIZATION_ROLE ( 'creator' ) ;
#140 = APPLICATION_CONTEXT ( 'configuration controlled 3d designs of mechanical parts and assemblies' ) ;
#141 =( GEOMETRIC_REPRESENTATION_CONTEXT ( 3 ) GLOBAL_UNCERTAINTY_ASSIGNED_CONTEXT ( ( #67 ) ) GLOBAL_UNIT_ASSIGNED_CONTEXT ( ( #121, #109, #136 ) ) REPRESENTATION_CONTEXT ( 'NONE', 'WORKASPACE' ) );
#142 = APPROVAL ( #3, 'UNSPECIFIED' ) ;
#143 = PERSON ( 'UNSPECIFIED', 'UNSPECIFIED', 'UNSPECIFIED', ('UNSPECIFIED'), ('UNSPECIFIED'), ('UNSPECIFIED') ) ;
#144 = EDGE_CURVE ( 'NONE', #170, #185, #46, .T. ) ;
#145 = CC_DESIGN_PERSON_AND_ORGANIZATION_ASSIGNMENT ( #129, #139, ( #224 ) ) ;
#146 = AXIS2_PLACEMENT_3D ( 'NONE', #35, #122, #77 ) ;
#147 = VERTEX_POINT ( 'NONE', #97 ) ;
#148 = ORIENTED_EDGE ( 'NONE', *, *, #131, .F. ) ;
#149 = CARTESIAN_POINT ( 'NONE',  ( 88.89999999999996300, -63.50000000000001400, 0.7500000000000000000 ) ) ;
#150 = FACE_OUTER_BOUND ( 'NONE', #152, .T. ) ;
#151 = PRODUCT_DEFINITION_SHAPE ( 'NONE', 'NONE',  #206 ) ;
#152 = EDGE_LOOP ( 'NONE', ( #204, #182, #73, #207 ) ) ;
#153 = CC_DESIGN_APPROVAL ( #189, ( #206 ) ) ;
#154 = CARTESIAN_POINT ( 'NONE',  ( 88.89999999999997700, 63.49999999999998600, -0.7500000000000000000 ) ) ;
#155 = APPROVAL_DATE_TIME ( #65, #142 ) ;
#156 = AXIS2_PLACEMENT_3D ( 'NONE', #211, #101, #93 ) ;
#157 = EDGE_LOOP ( 'NONE', ( #45, #216, #148, #176 ) ) ;
#158 = DIRECTION ( 'NONE',  ( -1.000000000000000000, -7.805279981897893700E-017, 0.0000000000000000000 ) ) ;
#159 = ORIENTED_EDGE ( 'NONE', *, *, #25, .T. ) ;
#160 = CARTESIAN_POINT ( 'NONE',  ( -88.90000000000003400, -63.50000000000002800, -0.7500000000000000000 ) ) ;
#161 = CARTESIAN_POINT ( 'NONE',  ( -88.90000000000003400, 63.49999999999997200, -0.7500000000000000000 ) ) ;
#162 = LINE ( 'NONE', #91, #227 ) ;
#163 = EDGE_LOOP ( 'NONE', ( #159, #75, #223, #226 ) ) ;
#164 = ORIENTED_EDGE ( 'NONE', *, *, #200, .F. ) ;
#165 = LOCAL_TIME ( 15, 43, 46.00000000000000000, #84 ) ;
#166 = ADVANCED_FACE ( 'NONE', ( #66 ), #197, .F. ) ;
#167 = ORIENTED_EDGE ( 'NONE', *, *, #173, .T. ) ;
#168 = VECTOR ( 'NONE', #42, 1000.000000000000000 ) ;
#169 = PLANE ( 'NONE',  #116 ) ;
#170 = VERTEX_POINT ( 'NONE', #161 ) ;
#171 = FACE_OUTER_BOUND ( 'NONE', #188, .T. ) ;
#172 = CALENDAR_DATE ( 2017, 24, 4 ) ;
#173 = EDGE_CURVE ( 'NONE', #126, #174, #236, .T. ) ;
#174 = VERTEX_POINT ( 'NONE', #37 ) ;
#175 = CARTESIAN_POINT ( 'NONE',  ( 0.0000000000000000000, 0.0000000000000000000, -0.7500000000000000000 ) ) ;
#176 = ORIENTED_EDGE ( 'NONE', *, *, #103, .F. ) ;
#177 = APPROVAL_STATUS ( 'not_yet_approved' ) ;
#178 = MECHANICAL_CONTEXT ( 'NONE', #140, 'mechanical' ) ;
#179 = ORIENTED_EDGE ( 'NONE', *, *, #201, .T. ) ;
#180 = AXIS2_PLACEMENT_3D ( 'NONE', #175, #24, #26 ) ;
#181 = ADVANCED_FACE ( 'NONE', ( #59 ), #199, .F. ) ;
#182 = ORIENTED_EDGE ( 'NONE', *, *, #118, .F. ) ;
#183 = ORIENTED_EDGE ( 'NONE', *, *, #103, .T. ) ;
#184 = CARTESIAN_POINT ( 'NONE',  ( 88.89999999999996300, -63.50000000000001400, 0.7500000000000000000 ) ) ;
#185 = VERTEX_POINT ( 'NONE', #160 ) ;
#186 = LOCAL_TIME ( 15, 43, 46.00000000000000000, #191 ) ;
#187 = DIRECTION ( 'NONE',  ( -7.805279981897892400E-017, 1.000000000000000000, 0.0000000000000000000 ) ) ;
#188 = EDGE_LOOP ( 'NONE', ( #183, #202, #83, #95 ) ) ;
#189 = APPROVAL ( #38, 'UNSPECIFIED' ) ;
#190 = ORIENTED_EDGE ( 'NONE', *, *, #228, .T. ) ;
#191 = COORDINATED_UNIVERSAL_TIME_OFFSET ( 5, 0, .BEHIND. ) ;
#192 = CC_DESIGN_APPROVAL ( #218, ( #224 ) ) ;
#193 = CARTESIAN_POINT ( 'NONE',  ( 88.89999999999997700, 63.49999999999998600, 0.7500000000000000000 ) ) ;
#194 = CARTESIAN_POINT ( 'NONE',  ( 88.89999999999996300, -63.50000000000001400, 0.7500000000000000000 ) ) ;
#195 = CARTESIAN_POINT ( 'NONE',  ( -88.90000000000003400, -63.50000000000002800, 0.7500000000000000000 ) ) ;
#196 = LINE ( 'NONE', #96, #70 ) ;
#197 = PLANE ( 'NONE',  #146 ) ;
#198 = APPLICATION_CONTEXT ( 'configuration controlled 3d designs of mechanical parts and assemblies' ) ;
#199 = PLANE ( 'NONE',  #219 ) ;
#200 = EDGE_CURVE ( 'NONE', #174, #185, #63, .T. ) ;
#201 = EDGE_CURVE ( 'NONE', #81, #126, #230, .T. ) ;
#202 = ORIENTED_EDGE ( 'NONE', *, *, #87, .F. ) ;
#203 = EDGE_LOOP ( 'NONE', ( #167, #222, #190, #179 ) ) ;
#204 = ORIENTED_EDGE ( 'NONE', *, *, #131, .T. ) ;
#205 = VECTOR ( 'NONE', #138, 1000.000000000000000 ) ;
#206 = PRODUCT_DEFINITION ( 'UNKNOWN', '', #224, #23 ) ;
#207 = ORIENTED_EDGE ( 'NONE', *, *, #87, .T. ) ;
#208 = EDGE_LOOP ( 'NONE', ( #53, #164, #88, #68 ) ) ;
#209 = APPROVAL_PERSON_ORGANIZATION ( #69, #142, #18 ) ;
#210 = CLOSED_SHELL ( 'NONE', ( #166, #6, #112, #181, #28, #99 ) ) ;
#211 = CARTESIAN_POINT ( 'NONE',  ( 0.0000000000000000000, 0.0000000000000000000, 0.7500000000000000000 ) ) ;
#212 = VECTOR ( 'NONE', #54, 1000.000000000000000 ) ;
#213 = DIRECTION ( 'NONE',  ( -0.0000000000000000000, -1.000000000000000000, -0.0000000000000000000 ) ) ;
#214 = CARTESIAN_POINT ( 'NONE',  ( 0.0000000000000000000, 0.0000000000000000000, 0.0000000000000000000 ) ) ;
#215 = FACE_OUTER_BOUND ( 'NONE', #203, .T. ) ;
#216 = ORIENTED_EDGE ( 'NONE', *, *, #25, .F. ) ;
#217 = MANIFOLD_SOLID_BREP ( 'Boss-Extrude1', #210 ) ;
#218 = APPROVAL ( #177, 'UNSPECIFIED' ) ;
#219 = AXIS2_PLACEMENT_3D ( 'NONE', #193, #74, #123 ) ;
#220 = VERTEX_POINT ( 'NONE', #111 ) ;
#221 = CC_DESIGN_DATE_AND_TIME_ASSIGNMENT ( #12, #1, ( #115 ) ) ;
#222 = ORIENTED_EDGE ( 'NONE', *, *, #80, .T. ) ;
#223 = ORIENTED_EDGE ( 'NONE', *, *, #201, .F. ) ;
#224 = PRODUCT_DEFINITION_FORMATION_WITH_SPECIFIED_SOURCE ( 'ANY', '', #85, .NOT_KNOWN. ) ;
#225 = AXIS2_PLACEMENT_3D ( 'NONE', #21, #55, #57 ) ;
#226 = ORIENTED_EDGE ( 'NONE', *, *, #118, .T. ) ;
#227 = VECTOR ( 'NONE', #19, 1000.000000000000000 ) ;
#228 = EDGE_CURVE ( 'NONE', #147, #81, #58, .T. ) ;
#229 = PERSON_AND_ORGANIZATION ( #143, #50 ) ;
#230 = LINE ( 'NONE', #235, #107 ) ;
#231 = PERSON_AND_ORGANIZATION_ROLE ( 'creator' ) ;
#232 = CARTESIAN_POINT ( 'NONE',  ( -88.90000000000003400, -63.50000000000002800, 0.7500000000000000000 ) ) ;
#233 = APPROVAL_ROLE ( '' ) ;
#234 = LINE ( 'NONE', #92, #102 ) ;
#235 = CARTESIAN_POINT ( 'NONE',  ( 88.89999999999997700, 63.49999999999998600, 0.7500000000000000000 ) ) ;
#236 = LINE ( 'NONE', #232, #62 ) ;
#237 = PLANE ( 'NONE',  #180 ) ;
ENDSEC;
END-ISO-10303-21;
