ISO-10303-21;
HEADER;
FILE_DESCRIPTION (( 'STEP AP203' ),
    '1' );
FILE_NAME ('Web Model 34467_34469.step',
    '2017-06-14T17:56:42',
    ( '' ),
    ( '' ),
    'SwSTEP 2.0',
    'SolidWorks 2016',
    '' );
FILE_SCHEMA (( 'CONFIG_CONTROL_DESIGN' ));
ENDSEC;

DATA;
#1 = VECTOR ( 'NONE', #86, 1000.000000000000000 ) ;
#2 = CALENDAR_DATE ( 2017, 14, 6 ) ;
#3 = AXIS2_PLACEMENT_3D ( 'NONE', #87, #134, #53 ) ;
#4 = ORIENTED_EDGE ( 'NONE', *, *, #155, .F. ) ;
#5 = PLANE ( 'NONE',  #3 ) ;
#6 = PERSON_AND_ORGANIZATION_ROLE ( 'creator' ) ;
#7 = CC_DESIGN_PERSON_AND_ORGANIZATION_ASSIGNMENT ( #47, #65, ( #46 ) ) ;
#8 = PERSON_AND_ORGANIZATION ( #97, #54 ) ;
#9 = ORIENTED_EDGE ( 'NONE', *, *, #19, .T. ) ;
#10 = DIRECTION ( 'NONE',  ( 0.0000000000000000000, 0.0000000000000000000, 1.000000000000000000 ) ) ;
#11 = FACE_OUTER_BOUND ( 'NONE', #60, .T. ) ;
#12 = APPROVAL_PERSON_ORGANIZATION ( #141, #165, #131 ) ;
#13 = COORDINATED_UNIVERSAL_TIME_OFFSET ( 5, 0, .BEHIND. ) ;
#14 = APPROVAL_DATE_TIME ( #107, #165 ) ;
#15 =( GEOMETRIC_REPRESENTATION_CONTEXT ( 3 ) GLOBAL_UNCERTAINTY_ASSIGNED_CONTEXT ( ( #100 ) ) GLOBAL_UNIT_ASSIGNED_CONTEXT ( ( #147, #118, #143 ) ) REPRESENTATION_CONTEXT ( 'NONE', 'WORKASPACE' ) );
#16 = CARTESIAN_POINT ( 'NONE',  ( 5.000000000000000000, 6.123233995736766300E-016, 0.6250000000000000000 ) ) ;
#17 = CARTESIAN_POINT ( 'NONE',  ( 0.0000000000000000000, 0.0000000000000000000, 0.0000000000000000000 ) ) ;
#18 = ADVANCED_FACE ( 'NONE', ( #11 ), #98, .T. ) ;
#19 = EDGE_CURVE ( 'NONE', #125, #21, #40, .T. ) ;
#20 = PRODUCT ( 'Web Model 34467_34469', 'Web Model 34467_34469', '', ( #108 ) ) ;
#21 = VERTEX_POINT ( 'NONE', #166 ) ;
#22 = LOCAL_TIME ( 13, 56, 42.00000000000000000, #68 ) ;
#23 = APPROVAL_ROLE ( '' ) ;
#24 = APPROVAL_STATUS ( 'not_yet_approved' ) ;
#25 = AXIS2_PLACEMENT_3D ( 'NONE', #81, #61, #161 ) ;
#26 = ORIENTED_EDGE ( 'NONE', *, *, #123, .T. ) ;
#27 = CC_DESIGN_PERSON_AND_ORGANIZATION_ASSIGNMENT ( #30, #89, ( #128 ) ) ;
#28 = FACE_OUTER_BOUND ( 'NONE', #113, .T. ) ;
#29 = COORDINATED_UNIVERSAL_TIME_OFFSET ( 5, 0, .BEHIND. ) ;
#30 = PERSON_AND_ORGANIZATION ( #97, #54 ) ;
#31 = PERSON_AND_ORGANIZATION_ROLE ( 'design_owner' ) ;
#32 = DIRECTION ( 'NONE',  ( 0.0000000000000000000, 0.0000000000000000000, 1.000000000000000000 ) ) ;
#33 = PERSON_AND_ORGANIZATION ( #97, #54 ) ;
#34 = CIRCLE ( 'NONE', #25, 5.000000000000000000 ) ;
#35 = CALENDAR_DATE ( 2017, 14, 6 ) ;
#36 = APPROVAL_PERSON_ORGANIZATION ( #101, #95, #23 ) ;
#37 = CC_DESIGN_PERSON_AND_ORGANIZATION_ASSIGNMENT ( #154, #151, ( #84 ) ) ;
#38 = ORIENTED_EDGE ( 'NONE', *, *, #106, .T. ) ;
#39 = APPROVAL_STATUS ( 'not_yet_approved' ) ;
#40 = CIRCLE ( 'NONE', #173, 5.000000000000000000 ) ;
#41 = CARTESIAN_POINT ( 'NONE',  ( 5.000000000000000000, 6.123233995736766300E-016, -0.6250000000000000000 ) ) ;
#42 = APPROVAL_PERSON_ORGANIZATION ( #48, #90, #139 ) ;
#43 = DATE_AND_TIME ( #102, #169 ) ;
#44 = EDGE_CURVE ( 'NONE', #21, #125, #34, .T. ) ;
#45 = CIRCLE ( 'NONE', #78, 5.000000000000000000 ) ;
#46 = SECURITY_CLASSIFICATION ( '', '', #109 ) ;
#47 = PERSON_AND_ORGANIZATION ( #97, #54 ) ;
#48 = PERSON_AND_ORGANIZATION ( #97, #54 ) ;
#49 = DATE_AND_TIME ( #2, #96 ) ;
#50 = AXIS2_PLACEMENT_3D ( 'NONE', #17, #80, #157 ) ;
#51 = CARTESIAN_POINT ( 'NONE',  ( 0.0000000000000000000, 0.0000000000000000000, 0.6250000000000000000 ) ) ;
#52 = ADVANCED_BREP_SHAPE_REPRESENTATION ( 'Web Model 34467_34469', ( #88, #50 ), #15 ) ;
#53 = DIRECTION ( 'NONE',  ( 1.000000000000000000, 0.0000000000000000000, -0.0000000000000000000 ) ) ;
#54 = ORGANIZATION ( 'UNSPECIFIED', 'UNSPECIFIED', '' ) ;
#55 = CC_DESIGN_APPROVAL ( #95, ( #128 ) ) ;
#56 = APPLICATION_CONTEXT ( 'configuration controlled 3d designs of mechanical parts and assemblies' ) ;
#57 = CARTESIAN_POINT ( 'NONE',  ( 0.0000000000000000000, 0.0000000000000000000, 0.6250000000000000000 ) ) ;
#58 = VERTEX_POINT ( 'NONE', #146 ) ;
#59 = AXIS2_PLACEMENT_3D ( 'NONE', #103, #133, #76 ) ;
#60 = EDGE_LOOP ( 'NONE', ( #26, #83 ) ) ;
#61 = DIRECTION ( 'NONE',  ( 0.0000000000000000000, 0.0000000000000000000, 1.000000000000000000 ) ) ;
#62 = AXIS2_PLACEMENT_3D ( 'NONE', #94, #75, #71 ) ;
#63 = DATE_TIME_ROLE ( 'creation_date' ) ;
#64 = DESIGN_CONTEXT ( 'detailed design', #56, 'design' ) ;
#65 = PERSON_AND_ORGANIZATION_ROLE ( 'classification_officer' ) ;
#66 = CC_DESIGN_PERSON_AND_ORGANIZATION_ASSIGNMENT ( #33, #6, ( #128 ) ) ;
#67 = DATE_TIME_ROLE ( 'classification_date' ) ;
#68 = COORDINATED_UNIVERSAL_TIME_OFFSET ( 5, 0, .BEHIND. ) ;
#69 = EDGE_LOOP ( 'NONE', ( #153, #172, #9, #150 ) ) ;
#70 = APPROVAL_DATE_TIME ( #49, #95 ) ;
#71 = DIRECTION ( 'NONE',  ( 1.000000000000000000, 0.0000000000000000000, -0.0000000000000000000 ) ) ;
#72 = DIRECTION ( 'NONE',  ( 0.0000000000000000000, 0.0000000000000000000, 1.000000000000000000 ) ) ;
#73 = CC_DESIGN_DATE_AND_TIME_ASSIGNMENT ( #43, #63, ( #84 ) ) ;
#74 = COORDINATED_UNIVERSAL_TIME_OFFSET ( 5, 0, .BEHIND. ) ;
#75 = DIRECTION ( 'NONE',  ( 0.0000000000000000000, 0.0000000000000000000, 1.000000000000000000 ) ) ;
#76 = DIRECTION ( 'NONE',  ( -1.000000000000000000, 0.0000000000000000000, 0.0000000000000000000 ) ) ;
#77 = APPLICATION_CONTEXT ( 'configuration controlled 3d designs of mechanical parts and assemblies' ) ;
#78 = AXIS2_PLACEMENT_3D ( 'NONE', #51, #10, #122 ) ;
#79 = COORDINATED_UNIVERSAL_TIME_OFFSET ( 5, 0, .BEHIND. ) ;
#80 = DIRECTION ( 'NONE',  ( 0.0000000000000000000, 0.0000000000000000000, 1.000000000000000000 ) ) ;
#81 = CARTESIAN_POINT ( 'NONE',  ( 0.0000000000000000000, 0.0000000000000000000, -0.6250000000000000000 ) ) ;
#82 = FACE_OUTER_BOUND ( 'NONE', #69, .T. ) ;
#83 = ORIENTED_EDGE ( 'NONE', *, *, #129, .T. ) ;
#84 = PRODUCT_DEFINITION ( 'UNKNOWN', '', #128, #64 ) ;
#85 = DATE_AND_TIME ( #35, #115 ) ;
#86 = DIRECTION ( 'NONE',  ( -0.0000000000000000000, -0.0000000000000000000, -1.000000000000000000 ) ) ;
#87 = CARTESIAN_POINT ( 'NONE',  ( 0.0000000000000000000, 0.0000000000000000000, -0.6250000000000000000 ) ) ;
#88 = MANIFOLD_SOLID_BREP ( 'Boss-Extrude1', #167 ) ;
#89 = PERSON_AND_ORGANIZATION_ROLE ( 'design_supplier' ) ;
#90 = APPROVAL ( #24, 'UNSPECIFIED' ) ;
#91 = LINE ( 'NONE', #112, #1 ) ;
#92 = CALENDAR_DATE ( 2017, 14, 6 ) ;
#93 = APPLICATION_PROTOCOL_DEFINITION ( 'international standard', 'config_control_design', 1994, #56 ) ;
#94 = CARTESIAN_POINT ( 'NONE',  ( 0.0000000000000000000, 0.0000000000000000000, 0.6250000000000000000 ) ) ;
#95 = APPROVAL ( #159, 'UNSPECIFIED' ) ;
#96 = LOCAL_TIME ( 13, 56, 42.00000000000000000, #29 ) ;
#97 = PERSON ( 'UNSPECIFIED', 'UNSPECIFIED', 'UNSPECIFIED', ('UNSPECIFIED'), ('UNSPECIFIED'), ('UNSPECIFIED') ) ;
#98 = PLANE ( 'NONE',  #62 ) ;
#99 = AXIS2_PLACEMENT_3D ( 'NONE', #57, #32, #158 ) ;
#100 = UNCERTAINTY_MEASURE_WITH_UNIT (LENGTH_MEASURE( 1.000000000000000100E-005 ), #147, 'distance_accuracy_value', 'NONE');
#101 = PERSON_AND_ORGANIZATION ( #97, #54 ) ;
#102 = CALENDAR_DATE ( 2017, 14, 6 ) ;
#103 = CARTESIAN_POINT ( 'NONE',  ( 0.0000000000000000000, 0.0000000000000000000, 0.6250000000000000000 ) ) ;
#104 = DIRECTION ( 'NONE',  ( -0.0000000000000000000, -0.0000000000000000000, -1.000000000000000000 ) ) ;
#105 = CC_DESIGN_DATE_AND_TIME_ASSIGNMENT ( #116, #67, ( #46 ) ) ;
#106 = EDGE_CURVE ( 'NONE', #58, #21, #91, .T. ) ;
#107 = DATE_AND_TIME ( #92, #142 ) ;
#108 = MECHANICAL_CONTEXT ( 'NONE', #77, 'mechanical' ) ;
#109 = SECURITY_CLASSIFICATION_LEVEL ( 'unclassified' ) ;
#110 = CYLINDRICAL_SURFACE ( 'NONE', #175, 5.000000000000000000 ) ;
#111 = ADVANCED_FACE ( 'NONE', ( #28 ), #5, .F. ) ;
#112 = CARTESIAN_POINT ( 'NONE',  ( -5.000000000000000000, 0.0000000000000000000, 0.6250000000000000000 ) ) ;
#113 = EDGE_LOOP ( 'NONE', ( #119, #114 ) ) ;
#114 = ORIENTED_EDGE ( 'NONE', *, *, #19, .F. ) ;
#115 = LOCAL_TIME ( 13, 56, 42.00000000000000000, #74 ) ;
#116 = DATE_AND_TIME ( #152, #22 ) ;
#117 = ADVANCED_FACE ( 'NONE', ( #82 ), #110, .T. ) ;
#118 =( NAMED_UNIT ( * ) PLANE_ANGLE_UNIT ( ) SI_UNIT ( $, .RADIAN. ) );
#119 = ORIENTED_EDGE ( 'NONE', *, *, #44, .F. ) ;
#120 = APPROVAL_DATE_TIME ( #85, #90 ) ;
#121 = PRODUCT_RELATED_PRODUCT_CATEGORY ( 'detail', '', ( #20 ) ) ;
#122 = DIRECTION ( 'NONE',  ( 1.000000000000000000, 0.0000000000000000000, 0.0000000000000000000 ) ) ;
#123 = EDGE_CURVE ( 'NONE', #58, #149, #45, .T. ) ;
#124 = CIRCLE ( 'NONE', #99, 5.000000000000000000 ) ;
#125 = VERTEX_POINT ( 'NONE', #41 ) ;
#126 = CARTESIAN_POINT ( 'NONE',  ( 0.0000000000000000000, 0.0000000000000000000, 0.6250000000000000000 ) ) ;
#127 = CYLINDRICAL_SURFACE ( 'NONE', #59, 5.000000000000000000 ) ;
#128 = PRODUCT_DEFINITION_FORMATION_WITH_SPECIFIED_SOURCE ( 'ANY', '', #20, .NOT_KNOWN. ) ;
#129 = EDGE_CURVE ( 'NONE', #149, #58, #124, .T. ) ;
#130 = APPLICATION_PROTOCOL_DEFINITION ( 'international standard', 'config_control_design', 1994, #77 ) ;
#131 = APPROVAL_ROLE ( '' ) ;
#132 = ORIENTED_EDGE ( 'NONE', *, *, #44, .T. ) ;
#133 = DIRECTION ( 'NONE',  ( -0.0000000000000000000, -0.0000000000000000000, -1.000000000000000000 ) ) ;
#134 = DIRECTION ( 'NONE',  ( 0.0000000000000000000, 0.0000000000000000000, 1.000000000000000000 ) ) ;
#135 = DIRECTION ( 'NONE',  ( -1.000000000000000000, 0.0000000000000000000, 0.0000000000000000000 ) ) ;
#136 = CC_DESIGN_SECURITY_CLASSIFICATION ( #46, ( #128 ) ) ;
#137 = SHAPE_DEFINITION_REPRESENTATION ( #168, #52 ) ;
#138 = CARTESIAN_POINT ( 'NONE',  ( 0.0000000000000000000, 0.0000000000000000000, -0.6250000000000000000 ) ) ;
#139 = APPROVAL_ROLE ( '' ) ;
#140 = ADVANCED_FACE ( 'NONE', ( #144 ), #127, .T. ) ;
#141 = PERSON_AND_ORGANIZATION ( #97, #54 ) ;
#142 = LOCAL_TIME ( 13, 56, 42.00000000000000000, #79 ) ;
#143 =( NAMED_UNIT ( * ) SI_UNIT ( $, .STERADIAN. ) SOLID_ANGLE_UNIT ( ) );
#144 = FACE_OUTER_BOUND ( 'NONE', #148, .T. ) ;
#145 = CC_DESIGN_APPROVAL ( #165, ( #46 ) ) ;
#146 = CARTESIAN_POINT ( 'NONE',  ( -5.000000000000000000, 0.0000000000000000000, 0.6250000000000000000 ) ) ;
#147 =( LENGTH_UNIT ( ) NAMED_UNIT ( * ) SI_UNIT ( .MILLI., .METRE. ) );
#148 = EDGE_LOOP ( 'NONE', ( #4, #160, #38, #132 ) ) ;
#149 = VERTEX_POINT ( 'NONE', #16 ) ;
#150 = ORIENTED_EDGE ( 'NONE', *, *, #106, .F. ) ;
#151 = PERSON_AND_ORGANIZATION_ROLE ( 'creator' ) ;
#152 = CALENDAR_DATE ( 2017, 14, 6 ) ;
#153 = ORIENTED_EDGE ( 'NONE', *, *, #129, .F. ) ;
#154 = PERSON_AND_ORGANIZATION ( #97, #54 ) ;
#155 = EDGE_CURVE ( 'NONE', #149, #125, #164, .T. ) ;
#156 = VECTOR ( 'NONE', #174, 1000.000000000000000 ) ;
#157 = DIRECTION ( 'NONE',  ( 1.000000000000000000, 0.0000000000000000000, 0.0000000000000000000 ) ) ;
#158 = DIRECTION ( 'NONE',  ( 1.000000000000000000, 0.0000000000000000000, 0.0000000000000000000 ) ) ;
#159 = APPROVAL_STATUS ( 'not_yet_approved' ) ;
#160 = ORIENTED_EDGE ( 'NONE', *, *, #123, .F. ) ;
#161 = DIRECTION ( 'NONE',  ( 1.000000000000000000, 0.0000000000000000000, 0.0000000000000000000 ) ) ;
#162 = CC_DESIGN_PERSON_AND_ORGANIZATION_ASSIGNMENT ( #8, #31, ( #20 ) ) ;
#163 = DIRECTION ( 'NONE',  ( 1.000000000000000000, 0.0000000000000000000, 0.0000000000000000000 ) ) ;
#164 = LINE ( 'NONE', #170, #156 ) ;
#165 = APPROVAL ( #39, 'UNSPECIFIED' ) ;
#166 = CARTESIAN_POINT ( 'NONE',  ( -5.000000000000000000, 0.0000000000000000000, -0.6250000000000000000 ) ) ;
#167 = CLOSED_SHELL ( 'NONE', ( #117, #140, #18, #111 ) ) ;
#168 = PRODUCT_DEFINITION_SHAPE ( 'NONE', 'NONE',  #84 ) ;
#169 = LOCAL_TIME ( 13, 56, 42.00000000000000000, #13 ) ;
#170 = CARTESIAN_POINT ( 'NONE',  ( 5.000000000000000000, 6.123233995736766300E-016, 0.6250000000000000000 ) ) ;
#171 = CC_DESIGN_APPROVAL ( #90, ( #84 ) ) ;
#172 = ORIENTED_EDGE ( 'NONE', *, *, #155, .T. ) ;
#173 = AXIS2_PLACEMENT_3D ( 'NONE', #138, #72, #163 ) ;
#174 = DIRECTION ( 'NONE',  ( -0.0000000000000000000, -0.0000000000000000000, -1.000000000000000000 ) ) ;
#175 = AXIS2_PLACEMENT_3D ( 'NONE', #126, #104, #135 ) ;
ENDSEC;
END-ISO-10303-21;
