ISO-10303-21;
HEADER;
FILE_DESCRIPTION (( 'STEP AP203' ),
    '1' );
FILE_NAME ('Web Model 20464_20530.step',
    '2022-06-06T20:41:23',
    ( 'WC' ),
    ( 'Windows Central' ),
    'SwSTEP 2.0',
    'SolidWorks 2021',
    '' );
FILE_SCHEMA (( 'CONFIG_CONTROL_DESIGN' ));
ENDSEC;

DATA;
#1 = CIRCLE ( 'NONE', #170, 15.00000000000000000 ) ;
#2 = FACE_OUTER_BOUND ( 'NONE', #86, .T. ) ;
#3 = ORIENTED_EDGE ( 'NONE', *, *, #88, .T. ) ;
#4 = ORIENTED_EDGE ( 'NONE', *, *, #105, .T. ) ;
#5 = VERTEX_POINT ( 'NONE', #7 ) ;
#6 = SECURITY_CLASSIFICATION ( '', '', #119 ) ;
#7 = CARTESIAN_POINT ( 'NONE',  ( -15.00000000000000000, 0.000000000000000000, 2.000000000000000000 ) ) ;
#8 = UNCERTAINTY_MEASURE_WITH_UNIT (LENGTH_MEASURE( 1.000000000000000082E-05 ), #152, 'distance_accuracy_value', 'NONE');
#9 = DATE_AND_TIME ( #79, #145 ) ;
#10 = CC_DESIGN_PERSON_AND_ORGANIZATION_ASSIGNMENT ( #34, #123, ( #6 ) ) ;
#11 = AXIS2_PLACEMENT_3D ( 'NONE', #126, #164, #163 ) ;
#12 = APPLICATION_PROTOCOL_DEFINITION ( 'international standard', 'config_control_design', 1994, #161 ) ;
#13 = COORDINATED_UNIVERSAL_TIME_OFFSET ( 5, 0, .BEHIND. ) ;
#14 = CALENDAR_DATE ( 2022, 6, 6 ) ;
#15 = CALENDAR_DATE ( 2022, 6, 6 ) ;
#16 = PERSON_AND_ORGANIZATION ( #104, #19 ) ;
#17 = ADVANCED_FACE ( 'NONE', ( #50 ), #41, .T. ) ;
#18 = PERSON_AND_ORGANIZATION ( #104, #19 ) ;
#19 = ORGANIZATION ( 'UNSPECIFIED', 'UNSPECIFIED', '' ) ;
#20 = DIRECTION ( 'NONE',  ( 0.000000000000000000, 0.000000000000000000, 1.000000000000000000 ) ) ;
#21 = CIRCLE ( 'NONE', #116, 15.00000000000000000 ) ;
#22 = DIRECTION ( 'NONE',  ( -0.000000000000000000, -0.000000000000000000, -1.000000000000000000 ) ) ;
#23 =( GEOMETRIC_REPRESENTATION_CONTEXT ( 3 ) GLOBAL_UNCERTAINTY_ASSIGNED_CONTEXT ( ( #8 ) ) GLOBAL_UNIT_ASSIGNED_CONTEXT ( ( #152, #54, #31 ) ) REPRESENTATION_CONTEXT ( 'NONE', 'WORKASPACE' ) );
#24 = ADVANCED_FACE ( 'NONE', ( #68 ), #113, .F. ) ;
#25 = DIRECTION ( 'NONE',  ( 0.000000000000000000, 0.000000000000000000, 1.000000000000000000 ) ) ;
#26 = PLANE ( 'NONE',  #87 ) ;
#27 = DIRECTION ( 'NONE',  ( 0.000000000000000000, 0.000000000000000000, 1.000000000000000000 ) ) ;
#28 = VERTEX_POINT ( 'NONE', #70 ) ;
#29 = CIRCLE ( 'NONE', #168, 15.00000000000000000 ) ;
#30 = LOCAL_TIME ( 16, 41, 23.00000000000000000, #66 ) ;
#31 =( NAMED_UNIT ( * ) SI_UNIT ( $, .STERADIAN. ) SOLID_ANGLE_UNIT ( ) );
#32 = CC_DESIGN_SECURITY_CLASSIFICATION ( #6, ( #102 ) ) ;
#33 = PERSON_AND_ORGANIZATION ( #104, #19 ) ;
#34 = PERSON_AND_ORGANIZATION ( #104, #19 ) ;
#35 = COORDINATED_UNIVERSAL_TIME_OFFSET ( 5, 0, .BEHIND. ) ;
#36 = PERSON_AND_ORGANIZATION_ROLE ( 'design_supplier' ) ;
#37 = DATE_AND_TIME ( #14, #30 ) ;
#38 = LOCAL_TIME ( 16, 41, 23.00000000000000000, #13 ) ;
#39 = PRODUCT ( 'Web Model 20464_20530', 'Web Model 20464_20530', '', ( #142 ) ) ;
#40 = CARTESIAN_POINT ( 'NONE',  ( 0.000000000000000000, 0.000000000000000000, 2.000000000000000000 ) ) ;
#41 = CYLINDRICAL_SURFACE ( 'NONE', #72, 15.00000000000000000 ) ;
#42 = EDGE_LOOP ( 'NONE', ( #59, #73, #4, #58 ) ) ;
#43 = ORIENTED_EDGE ( 'NONE', *, *, #105, .F. ) ;
#44 = CARTESIAN_POINT ( 'NONE',  ( 0.000000000000000000, 0.000000000000000000, 0.000000000000000000 ) ) ;
#45 = LOCAL_TIME ( 16, 41, 23.00000000000000000, #65 ) ;
#46 = DATE_AND_TIME ( #15, #45 ) ;
#47 = VECTOR ( 'NONE', #110, 1000.000000000000000 ) ;
#48 = CARTESIAN_POINT ( 'NONE',  ( 15.00000000000000000, 1.836970198721029589E-15, 2.000000000000000000 ) ) ;
#49 = CC_DESIGN_PERSON_AND_ORGANIZATION_ASSIGNMENT ( #108, #159, ( #102 ) ) ;
#50 = FACE_OUTER_BOUND ( 'NONE', #42, .T. ) ;
#51 = EDGE_CURVE ( 'NONE', #5, #148, #29, .T. ) ;
#52 = FACE_OUTER_BOUND ( 'NONE', #101, .T. ) ;
#53 = CARTESIAN_POINT ( 'NONE',  ( 0.000000000000000000, 0.000000000000000000, 0.000000000000000000 ) ) ;
#54 =( NAMED_UNIT ( * ) PLANE_ANGLE_UNIT ( ) SI_UNIT ( $, .RADIAN. ) );
#55 = MANIFOLD_SOLID_BREP ( 'Boss-Extrude1', #93 ) ;
#56 = DIRECTION ( 'NONE',  ( 1.000000000000000000, 0.000000000000000000, 0.000000000000000000 ) ) ;
#57 = EDGE_CURVE ( 'NONE', #28, #127, #1, .T. ) ;
#58 = ORIENTED_EDGE ( 'NONE', *, *, #57, .T. ) ;
#59 = ORIENTED_EDGE ( 'NONE', *, *, #89, .F. ) ;
#60 = DIRECTION ( 'NONE',  ( 0.000000000000000000, 0.000000000000000000, 1.000000000000000000 ) ) ;
#61 = DIRECTION ( 'NONE',  ( 1.000000000000000000, 0.000000000000000000, -0.000000000000000000 ) ) ;
#62 = PERSON_AND_ORGANIZATION ( #104, #19 ) ;
#63 = VECTOR ( 'NONE', #100, 1000.000000000000000 ) ;
#64 = APPROVAL_PERSON_ORGANIZATION ( #62, #136, #81 ) ;
#65 = COORDINATED_UNIVERSAL_TIME_OFFSET ( 5, 0, .BEHIND. ) ;
#66 = COORDINATED_UNIVERSAL_TIME_OFFSET ( 5, 0, .BEHIND. ) ;
#67 = LOCAL_TIME ( 16, 41, 23.00000000000000000, #174 ) ;
#68 = FACE_OUTER_BOUND ( 'NONE', #149, .T. ) ;
#69 = DIRECTION ( 'NONE',  ( 0.000000000000000000, 0.000000000000000000, 1.000000000000000000 ) ) ;
#70 = CARTESIAN_POINT ( 'NONE',  ( -15.00000000000000000, 0.000000000000000000, 0.000000000000000000 ) ) ;
#71 = CARTESIAN_POINT ( 'NONE',  ( 0.000000000000000000, 0.000000000000000000, 2.000000000000000000 ) ) ;
#72 = AXIS2_PLACEMENT_3D ( 'NONE', #85, #22, #153 ) ;
#73 = ORIENTED_EDGE ( 'NONE', *, *, #51, .F. ) ;
#74 = APPROVAL ( #75, 'UNSPECIFIED' ) ;
#75 = APPROVAL_STATUS ( 'not_yet_approved' ) ;
#76 = DIRECTION ( 'NONE',  ( 1.000000000000000000, 0.000000000000000000, 0.000000000000000000 ) ) ;
#77 = CALENDAR_DATE ( 2022, 6, 6 ) ;
#78 = AXIS2_PLACEMENT_3D ( 'NONE', #157, #91, #76 ) ;
#79 = CALENDAR_DATE ( 2022, 6, 6 ) ;
#80 = PRODUCT_DEFINITION ( 'UNKNOWN', '', #102, #118 ) ;
#81 = APPROVAL_ROLE ( '' ) ;
#82 = SHAPE_DEFINITION_REPRESENTATION ( #95, #173 ) ;
#83 = ORIENTED_EDGE ( 'NONE', *, *, #89, .T. ) ;
#84 = ORIENTED_EDGE ( 'NONE', *, *, #111, .F. ) ;
#85 = CARTESIAN_POINT ( 'NONE',  ( 0.000000000000000000, 0.000000000000000000, 2.000000000000000000 ) ) ;
#86 = EDGE_LOOP ( 'NONE', ( #84, #83, #3, #43 ) ) ;
#87 = AXIS2_PLACEMENT_3D ( 'NONE', #71, #27, #154 ) ;
#88 = EDGE_CURVE ( 'NONE', #127, #28, #121, .T. ) ;
#89 = EDGE_CURVE ( 'NONE', #148, #127, #125, .T. ) ;
#90 = PERSON_AND_ORGANIZATION ( #104, #19 ) ;
#91 = DIRECTION ( 'NONE',  ( 0.000000000000000000, 0.000000000000000000, 1.000000000000000000 ) ) ;
#92 = PERSON_AND_ORGANIZATION_ROLE ( 'creator' ) ;
#93 = CLOSED_SHELL ( 'NONE', ( #156, #17, #160, #24 ) ) ;
#94 = APPROVAL_PERSON_ORGANIZATION ( #16, #175, #147 ) ;
#95 = PRODUCT_DEFINITION_SHAPE ( 'NONE', 'NONE',  #80 ) ;
#96 = APPROVAL_STATUS ( 'not_yet_approved' ) ;
#97 = DATE_TIME_ROLE ( 'classification_date' ) ;
#98 = CC_DESIGN_APPROVAL ( #74, ( #102 ) ) ;
#99 = LINE ( 'NONE', #150, #63 ) ;
#100 = DIRECTION ( 'NONE',  ( -0.000000000000000000, -0.000000000000000000, -1.000000000000000000 ) ) ;
#101 = EDGE_LOOP ( 'NONE', ( #129, #139 ) ) ;
#102 = PRODUCT_DEFINITION_FORMATION_WITH_SPECIFIED_SOURCE ( 'ANY', '', #39, .NOT_KNOWN. ) ;
#103 = CARTESIAN_POINT ( 'NONE',  ( 0.000000000000000000, 0.000000000000000000, 2.000000000000000000 ) ) ;
#104 = PERSON ( 'UNSPECIFIED', 'UNSPECIFIED', 'UNSPECIFIED', ('UNSPECIFIED'), ('UNSPECIFIED'), ('UNSPECIFIED') ) ;
#105 = EDGE_CURVE ( 'NONE', #5, #28, #99, .T. ) ;
#106 = APPLICATION_PROTOCOL_DEFINITION ( 'international standard', 'config_control_design', 1994, #146 ) ;
#107 = CC_DESIGN_PERSON_AND_ORGANIZATION_ASSIGNMENT ( #18, #92, ( #80 ) ) ;
#108 = PERSON_AND_ORGANIZATION ( #104, #19 ) ;
#109 = CALENDAR_DATE ( 2022, 6, 6 ) ;
#110 = DIRECTION ( 'NONE',  ( -0.000000000000000000, -0.000000000000000000, -1.000000000000000000 ) ) ;
#111 = EDGE_CURVE ( 'NONE', #148, #5, #21, .T. ) ;
#112 = ORIENTED_EDGE ( 'NONE', *, *, #88, .F. ) ;
#113 = PLANE ( 'NONE',  #144 ) ;
#114 = PRODUCT_RELATED_PRODUCT_CATEGORY ( 'detail', '', ( #39 ) ) ;
#115 = DIRECTION ( 'NONE',  ( 1.000000000000000000, 0.000000000000000000, 0.000000000000000000 ) ) ;
#116 = AXIS2_PLACEMENT_3D ( 'NONE', #40, #20, #151 ) ;
#117 = CC_DESIGN_APPROVAL ( #136, ( #80 ) ) ;
#118 = DESIGN_CONTEXT ( 'detailed design', #146, 'design' ) ;
#119 = SECURITY_CLASSIFICATION_LEVEL ( 'unclassified' ) ;
#120 = APPROVAL_ROLE ( '' ) ;
#121 = CIRCLE ( 'NONE', #141, 15.00000000000000000 ) ;
#122 = APPROVAL_DATE_TIME ( #46, #74 ) ;
#123 = PERSON_AND_ORGANIZATION_ROLE ( 'classification_officer' ) ;
#124 = CARTESIAN_POINT ( 'NONE',  ( 15.00000000000000000, 1.836970198721029589E-15, 2.000000000000000000 ) ) ;
#125 = LINE ( 'NONE', #48, #47 ) ;
#126 = CARTESIAN_POINT ( 'NONE',  ( 0.000000000000000000, 0.000000000000000000, 2.000000000000000000 ) ) ;
#127 = VERTEX_POINT ( 'NONE', #138 ) ;
#128 = CC_DESIGN_APPROVAL ( #175, ( #6 ) ) ;
#129 = ORIENTED_EDGE ( 'NONE', *, *, #51, .T. ) ;
#130 = PERSON_AND_ORGANIZATION ( #104, #19 ) ;
#131 = DATE_AND_TIME ( #109, #38 ) ;
#132 = APPROVAL_STATUS ( 'not_yet_approved' ) ;
#133 = DATE_AND_TIME ( #77, #67 ) ;
#134 = DATE_TIME_ROLE ( 'creation_date' ) ;
#135 = CARTESIAN_POINT ( 'NONE',  ( 0.000000000000000000, 0.000000000000000000, 0.000000000000000000 ) ) ;
#136 = APPROVAL ( #96, 'UNSPECIFIED' ) ;
#137 = DIRECTION ( 'NONE',  ( 0.000000000000000000, 0.000000000000000000, 1.000000000000000000 ) ) ;
#138 = CARTESIAN_POINT ( 'NONE',  ( 15.00000000000000000, 1.836970198721029589E-15, 0.000000000000000000 ) ) ;
#139 = ORIENTED_EDGE ( 'NONE', *, *, #111, .T. ) ;
#140 = ORIENTED_EDGE ( 'NONE', *, *, #57, .F. ) ;
#141 = AXIS2_PLACEMENT_3D ( 'NONE', #44, #137, #56 ) ;
#142 = MECHANICAL_CONTEXT ( 'NONE', #161, 'mechanical' ) ;
#143 = APPROVAL_DATE_TIME ( #131, #136 ) ;
#144 = AXIS2_PLACEMENT_3D ( 'NONE', #135, #69, #61 ) ;
#145 = LOCAL_TIME ( 16, 41, 23.00000000000000000, #35 ) ;
#146 = APPLICATION_CONTEXT ( 'configuration controlled 3d designs of mechanical parts and assemblies' ) ;
#147 = APPROVAL_ROLE ( '' ) ;
#148 = VERTEX_POINT ( 'NONE', #124 ) ;
#149 = EDGE_LOOP ( 'NONE', ( #140, #112 ) ) ;
#150 = CARTESIAN_POINT ( 'NONE',  ( -15.00000000000000000, 0.000000000000000000, 2.000000000000000000 ) ) ;
#151 = DIRECTION ( 'NONE',  ( 1.000000000000000000, 0.000000000000000000, 0.000000000000000000 ) ) ;
#152 =( LENGTH_UNIT ( ) NAMED_UNIT ( * ) SI_UNIT ( .MILLI., .METRE. ) );
#153 = DIRECTION ( 'NONE',  ( -1.000000000000000000, 0.000000000000000000, 0.000000000000000000 ) ) ;
#154 = DIRECTION ( 'NONE',  ( 1.000000000000000000, 0.000000000000000000, -0.000000000000000000 ) ) ;
#155 = CC_DESIGN_DATE_AND_TIME_ASSIGNMENT ( #9, #134, ( #80 ) ) ;
#156 = ADVANCED_FACE ( 'NONE', ( #2 ), #166, .T. ) ;
#157 = CARTESIAN_POINT ( 'NONE',  ( 0.000000000000000000, 0.000000000000000000, 0.000000000000000000 ) ) ;
#158 = APPROVAL_PERSON_ORGANIZATION ( #33, #74, #120 ) ;
#159 = PERSON_AND_ORGANIZATION_ROLE ( 'creator' ) ;
#160 = ADVANCED_FACE ( 'NONE', ( #52 ), #26, .T. ) ;
#161 = APPLICATION_CONTEXT ( 'configuration controlled 3d designs of mechanical parts and assemblies' ) ;
#162 = CC_DESIGN_DATE_AND_TIME_ASSIGNMENT ( #133, #97, ( #6 ) ) ;
#163 = DIRECTION ( 'NONE',  ( -1.000000000000000000, 0.000000000000000000, 0.000000000000000000 ) ) ;
#164 = DIRECTION ( 'NONE',  ( -0.000000000000000000, -0.000000000000000000, -1.000000000000000000 ) ) ;
#165 = DIRECTION ( 'NONE',  ( 1.000000000000000000, 0.000000000000000000, 0.000000000000000000 ) ) ;
#166 = CYLINDRICAL_SURFACE ( 'NONE', #11, 15.00000000000000000 ) ;
#167 = CC_DESIGN_PERSON_AND_ORGANIZATION_ASSIGNMENT ( #130, #172, ( #39 ) ) ;
#168 = AXIS2_PLACEMENT_3D ( 'NONE', #103, #25, #165 ) ;
#169 = CC_DESIGN_PERSON_AND_ORGANIZATION_ASSIGNMENT ( #90, #36, ( #102 ) ) ;
#170 = AXIS2_PLACEMENT_3D ( 'NONE', #53, #60, #115 ) ;
#171 = APPROVAL_DATE_TIME ( #37, #175 ) ;
#172 = PERSON_AND_ORGANIZATION_ROLE ( 'design_owner' ) ;
#173 = ADVANCED_BREP_SHAPE_REPRESENTATION ( 'Web Model 20464_20530', ( #55, #78 ), #23 ) ;
#174 = COORDINATED_UNIVERSAL_TIME_OFFSET ( 5, 0, .BEHIND. ) ;
#175 = APPROVAL ( #132, 'UNSPECIFIED' ) ;
ENDSEC;
END-ISO-10303-21;
