ISO-10303-21;
HEADER;
FILE_DESCRIPTION (( 'STEP AP203' ),
    '1' );
FILE_NAME ('Web Model 68532.STEP',
    '2017-02-01T13:29:16',
    ( '' ),
    ( '' ),
    'SwSTEP 2.0',
    'SolidWorks 2016',
    '' );
FILE_SCHEMA (( 'CONFIG_CONTROL_DESIGN' ));
ENDSEC;

DATA;
#1 = CARTESIAN_POINT ( 'NONE',  ( 0.0000000000000000000, 0.0000000000000000000, -25.00000000000000000 ) ) ;
#2 = FACE_OUTER_BOUND ( 'NONE', #83, .T. ) ;
#3 = DIRECTION ( 'NONE',  ( 1.000000000000000000, 0.0000000000000000000, 0.0000000000000000000 ) ) ;
#4 = PRODUCT_RELATED_PRODUCT_CATEGORY ( 'detail', '', ( #48 ) ) ;
#5 = VERTEX_POINT ( 'NONE', #149 ) ;
#6 = FACE_OUTER_BOUND ( 'NONE', #122, .T. ) ;
#7 = DIRECTION ( 'NONE',  ( 0.0000000000000000000, 1.000000000000000000, 0.0000000000000000000 ) ) ;
#8 = VERTEX_POINT ( 'NONE', #37 ) ;
#9 = ORIENTED_EDGE ( 'NONE', *, *, #126, .F. ) ;
#10 = COORDINATED_UNIVERSAL_TIME_OFFSET ( 5, 0, .BEHIND. ) ;
#11 = VERTEX_POINT ( 'NONE', #1 ) ;
#12 = AXIS2_PLACEMENT_3D ( 'NONE', #20, #158, #136 ) ;
#13 = APPROVAL_ROLE ( '' ) ;
#14 = CLOSED_SHELL ( 'NONE', ( #15, #140, #87, #42 ) ) ;
#15 = ADVANCED_FACE ( 'NONE', ( #36 ), #115, .T. ) ;
#16 = COORDINATED_UNIVERSAL_TIME_OFFSET ( 5, 0, .BEHIND. ) ;
#17 = LOCAL_TIME ( 8, 29, 16.00000000000000000, #93 ) ;
#18 = ORIENTED_EDGE ( 'NONE', *, *, #44, .T. ) ;
#19 = CARTESIAN_POINT ( 'NONE',  ( 0.0000000000000000000, 3.000000000000000000, 0.0000000000000000000 ) ) ;
#20 = CARTESIAN_POINT ( 'NONE',  ( 0.0000000000000000000, 3.000000000000000000, 0.0000000000000000000 ) ) ;
#21 = PRODUCT_DEFINITION_FORMATION_WITH_SPECIFIED_SOURCE ( 'ANY', '', #48, .NOT_KNOWN. ) ;
#22 = ORIENTED_EDGE ( 'NONE', *, *, #155, .F. ) ;
#23 = PERSON_AND_ORGANIZATION ( #62, #61 ) ;
#24 = LOCAL_TIME ( 8, 29, 16.00000000000000000, #10 ) ;
#25 = CARTESIAN_POINT ( 'NONE',  ( 0.0000000000000000000, 0.0000000000000000000, 0.0000000000000000000 ) ) ;
#26 = DIRECTION ( 'NONE',  ( 0.0000000000000000000, 0.0000000000000000000, 1.000000000000000000 ) ) ;
#27 = ORIENTED_EDGE ( 'NONE', *, *, #116, .F. ) ;
#28 = PERSON_AND_ORGANIZATION_ROLE ( 'design_supplier' ) ;
#29 = PERSON_AND_ORGANIZATION ( #62, #61 ) ;
#30 = PERSON_AND_ORGANIZATION ( #62, #61 ) ;
#31 = CIRCLE ( 'NONE', #175, 25.00000000000000000 ) ;
#32 = CC_DESIGN_DATE_AND_TIME_ASSIGNMENT ( #172, #139, ( #102 ) ) ;
#33 = APPROVAL_DATE_TIME ( #67, #164 ) ;
#34 = DIRECTION ( 'NONE',  ( 0.0000000000000000000, 1.000000000000000000, 0.0000000000000000000 ) ) ;
#35 = DIRECTION ( 'NONE',  ( 0.0000000000000000000, 0.0000000000000000000, 1.000000000000000000 ) ) ;
#36 = FACE_OUTER_BOUND ( 'NONE', #174, .T. ) ;
#37 = CARTESIAN_POINT ( 'NONE',  ( 3.061616997868383000E-015, 0.0000000000000000000, 25.00000000000000000 ) ) ;
#38 = AXIS2_PLACEMENT_3D ( 'NONE', #25, #131, #119 ) ;
#39 = DATE_AND_TIME ( #71, #112 ) ;
#40 = ORIENTED_EDGE ( 'NONE', *, *, #143, .F. ) ;
#41 = APPROVAL ( #97, 'UNSPECIFIED' ) ;
#42 = ADVANCED_FACE ( 'NONE', ( #2 ), #77, .F. ) ;
#43 = CIRCLE ( 'NONE', #125, 25.00000000000000000 ) ;
#44 = EDGE_CURVE ( 'NONE', #5, #8, #75, .T. ) ;
#45 = PERSON_AND_ORGANIZATION ( #62, #61 ) ;
#46 = CYLINDRICAL_SURFACE ( 'NONE', #128, 25.00000000000000000 ) ;
#47 = VECTOR ( 'NONE', #132, 1000.000000000000000 ) ;
#48 = PRODUCT ( 'Web Model 68532', 'Web Model 68532', '', ( #141 ) ) ;
#49 = EDGE_LOOP ( 'NONE', ( #118, #40, #152, #133 ) ) ;
#50 = DIRECTION ( 'NONE',  ( 0.0000000000000000000, 1.000000000000000000, 0.0000000000000000000 ) ) ;
#51 = SECURITY_CLASSIFICATION ( '', '', #170 ) ;
#52 = PERSON_AND_ORGANIZATION ( #62, #61 ) ;
#53 = SHAPE_DEFINITION_REPRESENTATION ( #148, #86 ) ;
#54 = EDGE_CURVE ( 'NONE', #5, #78, #58, .T. ) ;
#55 = CARTESIAN_POINT ( 'NONE',  ( 0.0000000000000000000, 3.000000000000000000, -25.00000000000000000 ) ) ;
#56 =( NAMED_UNIT ( * ) PLANE_ANGLE_UNIT ( ) SI_UNIT ( $, .RADIAN. ) );
#57 = APPLICATION_CONTEXT ( 'configuration controlled 3d designs of mechanical parts and assemblies' ) ;
#58 = CIRCLE ( 'NONE', #173, 25.00000000000000000 ) ;
#59 = LOCAL_TIME ( 8, 29, 16.00000000000000000, #76 ) ;
#60 =( NAMED_UNIT ( * ) SI_UNIT ( $, .STERADIAN. ) SOLID_ANGLE_UNIT ( ) );
#61 = ORGANIZATION ( 'UNSPECIFIED', 'UNSPECIFIED', '' ) ;
#62 = PERSON ( 'UNSPECIFIED', 'UNSPECIFIED', 'UNSPECIFIED', ('UNSPECIFIED'), ('UNSPECIFIED'), ('UNSPECIFIED') ) ;
#63 = VECTOR ( 'NONE', #70, 1000.000000000000000 ) ;
#64 = APPROVAL_DATE_TIME ( #169, #142 ) ;
#65 = CARTESIAN_POINT ( 'NONE',  ( 0.0000000000000000000, 0.0000000000000000000, 0.0000000000000000000 ) ) ;
#66 = DIRECTION ( 'NONE',  ( -0.0000000000000000000, -1.000000000000000000, -0.0000000000000000000 ) ) ;
#67 = DATE_AND_TIME ( #104, #59 ) ;
#68 = CC_DESIGN_PERSON_AND_ORGANIZATION_ASSIGNMENT ( #29, #110, ( #21 ) ) ;
#69 = CALENDAR_DATE ( 2017, 1, 2 ) ;
#70 = DIRECTION ( 'NONE',  ( -0.0000000000000000000, -1.000000000000000000, -0.0000000000000000000 ) ) ;
#71 = CALENDAR_DATE ( 2017, 1, 2 ) ;
#72 = DIRECTION ( 'NONE',  ( 0.0000000000000000000, 0.0000000000000000000, 1.000000000000000000 ) ) ;
#73 = PLANE ( 'NONE',  #96 ) ;
#74 = DIRECTION ( 'NONE',  ( 0.0000000000000000000, 0.0000000000000000000, -1.000000000000000000 ) ) ;
#75 = LINE ( 'NONE', #95, #47 ) ;
#76 = COORDINATED_UNIVERSAL_TIME_OFFSET ( 5, 0, .BEHIND. ) ;
#77 = PLANE ( 'NONE',  #38 ) ;
#78 = VERTEX_POINT ( 'NONE', #55 ) ;
#79 = DIRECTION ( 'NONE',  ( 0.0000000000000000000, -0.0000000000000000000, 1.000000000000000000 ) ) ;
#80 = AXIS2_PLACEMENT_3D ( 'NONE', #65, #159, #3 ) ;
#81 = APPROVAL_STATUS ( 'not_yet_approved' ) ;
#82 = PERSON_AND_ORGANIZATION_ROLE ( 'creator' ) ;
#83 = EDGE_LOOP ( 'NONE', ( #27, #9 ) ) ;
#84 = APPROVAL_STATUS ( 'not_yet_approved' ) ;
#85 =( GEOMETRIC_REPRESENTATION_CONTEXT ( 3 ) GLOBAL_UNCERTAINTY_ASSIGNED_CONTEXT ( ( #100 ) ) GLOBAL_UNIT_ASSIGNED_CONTEXT ( ( #124, #56, #60 ) ) REPRESENTATION_CONTEXT ( 'NONE', 'WORKASPACE' ) );
#86 = ADVANCED_BREP_SHAPE_REPRESENTATION ( 'Web Model 68532', ( #166, #80 ), #85 ) ;
#87 = ADVANCED_FACE ( 'NONE', ( #6 ), #73, .T. ) ;
#88 = CC_DESIGN_APPROVAL ( #142, ( #51 ) ) ;
#89 = AXIS2_PLACEMENT_3D ( 'NONE', #145, #50, #121 ) ;
#90 = APPROVAL_PERSON_ORGANIZATION ( #45, #164, #109 ) ;
#91 = CARTESIAN_POINT ( 'NONE',  ( 0.0000000000000000000, 0.0000000000000000000, 0.0000000000000000000 ) ) ;
#92 = ORIENTED_EDGE ( 'NONE', *, *, #126, .T. ) ;
#93 = COORDINATED_UNIVERSAL_TIME_OFFSET ( 5, 0, .BEHIND. ) ;
#94 = CC_DESIGN_SECURITY_CLASSIFICATION ( #51, ( #21 ) ) ;
#95 = CARTESIAN_POINT ( 'NONE',  ( 3.061616997868383000E-015, 3.000000000000000000, 25.00000000000000000 ) ) ;
#96 = AXIS2_PLACEMENT_3D ( 'NONE', #117, #123, #79 ) ;
#97 = APPROVAL_STATUS ( 'not_yet_approved' ) ;
#98 = DATE_TIME_ROLE ( 'classification_date' ) ;
#99 = APPROVAL_PERSON_ORGANIZATION ( #30, #142, #111 ) ;
#100 = UNCERTAINTY_MEASURE_WITH_UNIT (LENGTH_MEASURE( 1.000000000000000100E-005 ), #124, 'distance_accuracy_value', 'NONE');
#101 = CC_DESIGN_PERSON_AND_ORGANIZATION_ASSIGNMENT ( #23, #167, ( #51 ) ) ;
#102 = PRODUCT_DEFINITION ( 'UNKNOWN', '', #21, #113 ) ;
#103 = APPROVAL_PERSON_ORGANIZATION ( #160, #41, #13 ) ;
#104 = CALENDAR_DATE ( 2017, 1, 2 ) ;
#105 = CIRCLE ( 'NONE', #89, 25.00000000000000000 ) ;
#106 = CALENDAR_DATE ( 2017, 1, 2 ) ;
#107 = CARTESIAN_POINT ( 'NONE',  ( 0.0000000000000000000, 3.000000000000000000, -25.00000000000000000 ) ) ;
#108 = ORIENTED_EDGE ( 'NONE', *, *, #143, .T. ) ;
#109 = APPROVAL_ROLE ( '' ) ;
#110 = PERSON_AND_ORGANIZATION_ROLE ( 'creator' ) ;
#111 = APPROVAL_ROLE ( '' ) ;
#112 = LOCAL_TIME ( 8, 29, 16.00000000000000000, #161 ) ;
#113 = DESIGN_CONTEXT ( 'detailed design', #151, 'design' ) ;
#114 = CC_DESIGN_DATE_AND_TIME_ASSIGNMENT ( #171, #98, ( #51 ) ) ;
#115 = CYLINDRICAL_SURFACE ( 'NONE', #12, 25.00000000000000000 ) ;
#116 = EDGE_CURVE ( 'NONE', #11, #8, #105, .T. ) ;
#117 = CARTESIAN_POINT ( 'NONE',  ( 0.0000000000000000000, 3.000000000000000000, 0.0000000000000000000 ) ) ;
#118 = ORIENTED_EDGE ( 'NONE', *, *, #44, .F. ) ;
#119 = DIRECTION ( 'NONE',  ( 0.0000000000000000000, -0.0000000000000000000, 1.000000000000000000 ) ) ;
#120 = CC_DESIGN_PERSON_AND_ORGANIZATION_ASSIGNMENT ( #134, #150, ( #48 ) ) ;
#121 = DIRECTION ( 'NONE',  ( 0.0000000000000000000, 0.0000000000000000000, 1.000000000000000000 ) ) ;
#122 = EDGE_LOOP ( 'NONE', ( #108, #157 ) ) ;
#123 = DIRECTION ( 'NONE',  ( 0.0000000000000000000, 1.000000000000000000, 0.0000000000000000000 ) ) ;
#124 =( LENGTH_UNIT ( ) NAMED_UNIT ( * ) SI_UNIT ( .MILLI., .METRE. ) );
#125 = AXIS2_PLACEMENT_3D ( 'NONE', #91, #34, #72 ) ;
#126 = EDGE_CURVE ( 'NONE', #8, #11, #43, .T. ) ;
#127 = CC_DESIGN_APPROVAL ( #164, ( #102 ) ) ;
#128 = AXIS2_PLACEMENT_3D ( 'NONE', #19, #66, #74 ) ;
#129 = ORIENTED_EDGE ( 'NONE', *, *, #54, .F. ) ;
#130 = CARTESIAN_POINT ( 'NONE',  ( 0.0000000000000000000, 3.000000000000000000, 0.0000000000000000000 ) ) ;
#131 = DIRECTION ( 'NONE',  ( 0.0000000000000000000, 1.000000000000000000, 0.0000000000000000000 ) ) ;
#132 = DIRECTION ( 'NONE',  ( -0.0000000000000000000, -1.000000000000000000, -0.0000000000000000000 ) ) ;
#133 = ORIENTED_EDGE ( 'NONE', *, *, #116, .T. ) ;
#134 = PERSON_AND_ORGANIZATION ( #62, #61 ) ;
#135 = APPROVAL_DATE_TIME ( #39, #41 ) ;
#136 = DIRECTION ( 'NONE',  ( 0.0000000000000000000, 0.0000000000000000000, -1.000000000000000000 ) ) ;
#137 = APPLICATION_PROTOCOL_DEFINITION ( 'international standard', 'config_control_design', 1994, #57 ) ;
#138 = CC_DESIGN_PERSON_AND_ORGANIZATION_ASSIGNMENT ( #147, #82, ( #102 ) ) ;
#139 = DATE_TIME_ROLE ( 'creation_date' ) ;
#140 = ADVANCED_FACE ( 'NONE', ( #153 ), #46, .T. ) ;
#141 = MECHANICAL_CONTEXT ( 'NONE', #57, 'mechanical' ) ;
#142 = APPROVAL ( #84, 'UNSPECIFIED' ) ;
#143 = EDGE_CURVE ( 'NONE', #78, #5, #31, .T. ) ;
#144 = DIRECTION ( 'NONE',  ( 0.0000000000000000000, 1.000000000000000000, 0.0000000000000000000 ) ) ;
#145 = CARTESIAN_POINT ( 'NONE',  ( 0.0000000000000000000, 0.0000000000000000000, 0.0000000000000000000 ) ) ;
#146 = CC_DESIGN_APPROVAL ( #41, ( #21 ) ) ;
#147 = PERSON_AND_ORGANIZATION ( #62, #61 ) ;
#148 = PRODUCT_DEFINITION_SHAPE ( 'NONE', 'NONE',  #102 ) ;
#149 = CARTESIAN_POINT ( 'NONE',  ( 3.061616997868383000E-015, 3.000000000000000000, 25.00000000000000000 ) ) ;
#150 = PERSON_AND_ORGANIZATION_ROLE ( 'design_owner' ) ;
#151 = APPLICATION_CONTEXT ( 'configuration controlled 3d designs of mechanical parts and assemblies' ) ;
#152 = ORIENTED_EDGE ( 'NONE', *, *, #155, .T. ) ;
#153 = FACE_OUTER_BOUND ( 'NONE', #49, .T. ) ;
#154 = LOCAL_TIME ( 8, 29, 16.00000000000000000, #16 ) ;
#155 = EDGE_CURVE ( 'NONE', #78, #11, #162, .T. ) ;
#156 = CC_DESIGN_PERSON_AND_ORGANIZATION_ASSIGNMENT ( #52, #28, ( #21 ) ) ;
#157 = ORIENTED_EDGE ( 'NONE', *, *, #54, .T. ) ;
#158 = DIRECTION ( 'NONE',  ( -0.0000000000000000000, -1.000000000000000000, -0.0000000000000000000 ) ) ;
#159 = DIRECTION ( 'NONE',  ( 0.0000000000000000000, 0.0000000000000000000, 1.000000000000000000 ) ) ;
#160 = PERSON_AND_ORGANIZATION ( #62, #61 ) ;
#161 = COORDINATED_UNIVERSAL_TIME_OFFSET ( 5, 0, .BEHIND. ) ;
#162 = LINE ( 'NONE', #107, #63 ) ;
#163 = CARTESIAN_POINT ( 'NONE',  ( 0.0000000000000000000, 3.000000000000000000, 0.0000000000000000000 ) ) ;
#164 = APPROVAL ( #81, 'UNSPECIFIED' ) ;
#165 = APPLICATION_PROTOCOL_DEFINITION ( 'international standard', 'config_control_design', 1994, #151 ) ;
#166 = MANIFOLD_SOLID_BREP ( 'Extrude1', #14 ) ;
#167 = PERSON_AND_ORGANIZATION_ROLE ( 'classification_officer' ) ;
#168 = CALENDAR_DATE ( 2017, 1, 2 ) ;
#169 = DATE_AND_TIME ( #106, #154 ) ;
#170 = SECURITY_CLASSIFICATION_LEVEL ( 'unclassified' ) ;
#171 = DATE_AND_TIME ( #168, #17 ) ;
#172 = DATE_AND_TIME ( #69, #24 ) ;
#173 = AXIS2_PLACEMENT_3D ( 'NONE', #163, #7, #26 ) ;
#174 = EDGE_LOOP ( 'NONE', ( #129, #18, #92, #22 ) ) ;
#175 = AXIS2_PLACEMENT_3D ( 'NONE', #130, #144, #35 ) ;
ENDSEC;
END-ISO-10303-21;
