ISO-10303-21;
HEADER;
FILE_DESCRIPTION (( 'STEP AP214' ),
    '1' );
FILE_NAME ('TTN166720-E0W.STEP',
    '2018-10-15T13:39:55',
    ( '' ),
    ( '' ),
    'SwSTEP 2.0',
    'SolidWorks 2018',
    '' );
FILE_SCHEMA (( 'AUTOMOTIVE_DESIGN' ));
ENDSEC;

DATA;
#1 = ORIENTED_EDGE ( 'NONE', *, *, #162, .F. ) ;
#2 =( NAMED_UNIT ( * ) SI_UNIT ( $, .STERADIAN. ) SOLID_ANGLE_UNIT ( ) );
#3 = CARTESIAN_POINT ( 'NONE',  ( 0.0000000000000000000, 0.0000000000000000000, 3.000000000000000000 ) ) ;
#4 = AXIS2_PLACEMENT_3D ( 'NONE', #3, #62, #78 ) ;
#5 = ORIENTED_EDGE ( 'NONE', *, *, #100, .T. ) ;
#6 = VECTOR ( 'NONE', #160, 1000.000000000000000 ) ;
#7 = DIRECTION ( 'NONE',  ( 1.000000000000000000, 0.0000000000000000000, 0.0000000000000000000 ) ) ;
#8 = EDGE_CURVE ( 'NONE', #121, #101, #63, .T. ) ;
#9 = VERTEX_POINT ( 'NONE', #49 ) ;
#10 = CARTESIAN_POINT ( 'NONE',  ( 0.0000000000000000000, 0.0000000000000000000, 3.000000000000000000 ) ) ;
#11 = LINE ( 'NONE', #57, #16 ) ;
#12 = EDGE_CURVE ( 'NONE', #159, #104, #71, .T. ) ;
#13 = ORIENTED_EDGE ( 'NONE', *, *, #61, .T. ) ;
#14 = CARTESIAN_POINT ( 'NONE',  ( 0.0000000000000000000, 0.0000000000000000000, 0.0000000000000000000 ) ) ;
#15 = DIRECTION ( 'NONE',  ( -0.0000000000000000000, -0.0000000000000000000, -1.000000000000000000 ) ) ;
#16 = VECTOR ( 'NONE', #170, 1000.000000000000000 ) ;
#17 = CARTESIAN_POINT ( 'NONE',  ( 35.00000000000000711, 0.0000000000000000000, 3.000000000000000000 ) ) ;
#18 = FILL_AREA_STYLE ('',( #58 ) ) ;
#19 = ORIENTED_EDGE ( 'NONE', *, *, #61, .F. ) ;
#20 = CARTESIAN_POINT ( 'NONE',  ( 0.0000000000000000000, 0.0000000000000000000, 3.000000000000000000 ) ) ;
#21 = AXIS2_PLACEMENT_3D ( 'NONE', #150, #70, #51 ) ;
#22 = SHAPE_DEFINITION_REPRESENTATION ( #149, #52 ) ;
#23 = EDGE_LOOP ( 'NONE', ( #195, #193, #73, #41 ) ) ;
#24 = DIRECTION ( 'NONE',  ( -1.000000000000000000, -0.0000000000000000000, -0.0000000000000000000 ) ) ;
#25 = FACE_OUTER_BOUND ( 'NONE', #23, .T. ) ;
#26 = ORIENTED_EDGE ( 'NONE', *, *, #12, .F. ) ;
#27 = EDGE_CURVE ( 'NONE', #104, #65, #137, .T. ) ;
#28 = FACE_OUTER_BOUND ( 'NONE', #88, .T. ) ;
#29 = VECTOR ( 'NONE', #40, 1000.000000000000000 ) ;
#30 = CARTESIAN_POINT ( 'NONE',  ( 0.0000000000000000000, 0.0000000000000000000, 0.0000000000000000000 ) ) ;
#31 = MECHANICAL_DESIGN_GEOMETRIC_PRESENTATION_REPRESENTATION (  '', ( #48 ), #173 ) ;
#32 = EDGE_LOOP ( 'NONE', ( #182, #152, #199, #131 ) ) ;
#33 = PRESENTATION_STYLE_ASSIGNMENT (( #155 ) ) ;
#34 = LINE ( 'NONE', #36, #29 ) ;
#35 = ORIENTED_EDGE ( 'NONE', *, *, #107, .F. ) ;
#36 = CARTESIAN_POINT ( 'NONE',  ( 0.0000000000000000000, 0.0000000000000000000, 3.000000000000000000 ) ) ;
#37 = FACE_OUTER_BOUND ( 'NONE', #115, .T. ) ;
#38 = PLANE ( 'NONE',  #21 ) ;
#39 = AXIS2_PLACEMENT_3D ( 'NONE', #102, #72, #103 ) ;
#40 = DIRECTION ( 'NONE',  ( -0.0000000000000000000, -1.000000000000000000, -0.0000000000000000000 ) ) ;
#41 = ORIENTED_EDGE ( 'NONE', *, *, #120, .T. ) ;
#42 =( NAMED_UNIT ( * ) PLANE_ANGLE_UNIT ( ) SI_UNIT ( $, .RADIAN. ) );
#43 = CARTESIAN_POINT ( 'NONE',  ( 0.0000000000000000000, 0.0000000000000000000, 0.0000000000000000000 ) ) ;
#44 = VECTOR ( 'NONE', #7, 1000.000000000000000 ) ;
#45 = EDGE_CURVE ( 'NONE', #156, #9, #95, .T. ) ;
#46 = FILL_AREA_STYLE_COLOUR ( '', #146 ) ;
#47 = DIRECTION ( 'NONE',  ( 1.000000000000000000, 0.0000000000000000000, 0.0000000000000000000 ) ) ;
#48 = STYLED_ITEM ( 'NONE', ( #174 ), #52 ) ;
#49 = CARTESIAN_POINT ( 'NONE',  ( 0.0000000000000000000, 52.00000000000000000, 3.000000000000000000 ) ) ;
#50 = AXIS2_PLACEMENT_3D ( 'NONE', #43, #154, #79 ) ;
#51 = DIRECTION ( 'NONE',  ( 0.0000000000000000000, -0.0000000000000000000, -1.000000000000000000 ) ) ;
#52 = ADVANCED_BREP_SHAPE_REPRESENTATION ( 'TTN166720-E0W', ( #186, #50 ), #184 ) ;
#53 = DIRECTION ( 'NONE',  ( -0.0000000000000000000, -0.0000000000000000000, -1.000000000000000000 ) ) ;
#54 = PLANE ( 'NONE',  #39 ) ;
#55 = EDGE_LOOP ( 'NONE', ( #13, #127, #81, #77 ) ) ;
#56 = MECHANICAL_DESIGN_GEOMETRIC_PRESENTATION_REPRESENTATION (  '', ( #116 ), #142 ) ;
#57 = CARTESIAN_POINT ( 'NONE',  ( 35.00000000000000711, 0.0000000000000000000, 3.000000000000000000 ) ) ;
#58 = FILL_AREA_STYLE_COLOUR ( '', #85 ) ;
#59 = APPLICATION_CONTEXT ( 'automotive_design' ) ;
#60 = SURFACE_STYLE_FILL_AREA ( #18 ) ;
#61 = EDGE_CURVE ( 'NONE', #119, #159, #143, .T. ) ;
#62 = DIRECTION ( 'NONE',  ( 0.0000000000000000000, 1.000000000000000000, 0.0000000000000000000 ) ) ;
#63 = LINE ( 'NONE', #10, #44 ) ;
#64 =( NAMED_UNIT ( * ) PLANE_ANGLE_UNIT ( ) SI_UNIT ( $, .RADIAN. ) );
#65 = VERTEX_POINT ( 'NONE', #135 ) ;
#66 = CARTESIAN_POINT ( 'NONE',  ( 0.0000000000000000000, 52.00000000000000000, 0.0000000000000000000 ) ) ;
#67 = LINE ( 'NONE', #17, #202 ) ;
#68 = PRODUCT_RELATED_PRODUCT_CATEGORY ( 'part', '', ( #198 ) ) ;
#69 = VECTOR ( 'NONE', #183, 1000.000000000000000 ) ;
#70 = DIRECTION ( 'NONE',  ( 0.0000000000000000000, -1.000000000000000000, 0.0000000000000000000 ) ) ;
#71 = LINE ( 'NONE', #194, #6 ) ;
#72 = DIRECTION ( 'NONE',  ( 0.0000000000000000000, 0.0000000000000000000, -1.000000000000000000 ) ) ;
#73 = ORIENTED_EDGE ( 'NONE', *, *, #128, .F. ) ;
#74 = PLANE ( 'NONE',  #4 ) ;
#75 = APPLICATION_CONTEXT ( 'automotive_design' ) ;
#76 = VECTOR ( 'NONE', #145, 1000.000000000000000 ) ;
#77 = ORIENTED_EDGE ( 'NONE', *, *, #118, .T. ) ;
#78 = DIRECTION ( 'NONE',  ( 0.0000000000000000000, -0.0000000000000000000, 1.000000000000000000 ) ) ;
#79 = DIRECTION ( 'NONE',  ( 1.000000000000000000, 0.0000000000000000000, 0.0000000000000000000 ) ) ;
#80 = EDGE_CURVE ( 'NONE', #156, #104, #124, .T. ) ;
#81 = ORIENTED_EDGE ( 'NONE', *, *, #8, .F. ) ;
#82 = VECTOR ( 'NONE', #53, 1000.000000000000000 ) ;
#83 = ADVANCED_FACE ( 'NONE', ( #110 ), #38, .F. ) ;
#84 = AXIS2_PLACEMENT_3D ( 'NONE', #123, #106, #140 ) ;
#85 = COLOUR_RGB ( '',0.7529411764705882248, 0.7529411764705882248, 0.7529411764705882248 ) ;
#86 = PRODUCT_DEFINITION ( 'UNKNOWN', '', #192, #108 ) ;
#87 = LINE ( 'NONE', #30, #76 ) ;
#88 = EDGE_LOOP ( 'NONE', ( #1, #148, #26, #19 ) ) ;
#89 = CARTESIAN_POINT ( 'NONE',  ( 0.0000000000000000000, 0.0000000000000000000, 3.000000000000000000 ) ) ;
#90 = DIRECTION ( 'NONE',  ( 0.0000000000000000000, 0.0000000000000000000, 1.000000000000000000 ) ) ;
#91 = CARTESIAN_POINT ( 'NONE',  ( 0.0000000000000000000, 0.0000000000000000000, 3.000000000000000000 ) ) ;
#92 = VECTOR ( 'NONE', #138, 1000.000000000000000 ) ;
#93 = PLANE ( 'NONE',  #166 ) ;
#94 = SURFACE_STYLE_FILL_AREA ( #181 ) ;
#95 = LINE ( 'NONE', #161, #69 ) ;
#96 =( NAMED_UNIT ( * ) SI_UNIT ( $, .STERADIAN. ) SOLID_ANGLE_UNIT ( ) );
#97 = DIRECTION ( 'NONE',  ( 0.0000000000000000000, 0.0000000000000000000, -1.000000000000000000 ) ) ;
#98 = ADVANCED_FACE ( 'NONE', ( #28 ), #54, .T. ) ;
#99 = ADVANCED_FACE ( 'NONE', ( #37 ), #188, .F. ) ;
#100 = EDGE_CURVE ( 'NONE', #9, #121, #34, .T. ) ;
#101 = VERTEX_POINT ( 'NONE', #165 ) ;
#102 = CARTESIAN_POINT ( 'NONE',  ( 0.0000000000000000000, 0.0000000000000000000, 0.0000000000000000000 ) ) ;
#103 = DIRECTION ( 'NONE',  ( -1.000000000000000000, 0.0000000000000000000, -0.0000000000000000000 ) ) ;
#104 = VERTEX_POINT ( 'NONE', #185 ) ;
#105 = UNCERTAINTY_MEASURE_WITH_UNIT (LENGTH_MEASURE( 1.000000000000000082E-05 ), #144, 'distance_accuracy_value', 'NONE');
#106 = DIRECTION ( 'NONE',  ( 0.0000000000000000000, 0.0000000000000000000, -1.000000000000000000 ) ) ;
#107 = EDGE_CURVE ( 'NONE', #9, #65, #158, .T. ) ;
#108 = PRODUCT_DEFINITION_CONTEXT ( 'detailed design', #75, 'design' ) ;
#109 = DIRECTION ( 'NONE',  ( -0.0000000000000000000, -0.0000000000000000000, -1.000000000000000000 ) ) ;
#110 = FACE_OUTER_BOUND ( 'NONE', #153, .T. ) ;
#111 = CARTESIAN_POINT ( 'NONE',  ( 0.0000000000000000000, 52.00000000000000000, 3.000000000000000000 ) ) ;
#112 = APPLICATION_PROTOCOL_DEFINITION ( 'draft international standard', 'automotive_design', 1998, #75 ) ;
#113 = LINE ( 'NONE', #89, #92 ) ;
#114 = DIRECTION ( 'NONE',  ( -1.000000000000000000, 0.0000000000000000000, 0.0000000000000000000 ) ) ;
#115 = EDGE_LOOP ( 'NONE', ( #5, #175, #191, #147 ) ) ;
#116 = STYLED_ITEM ( 'NONE', ( #33 ), #186 ) ;
#117 = ORIENTED_EDGE ( 'NONE', *, *, #45, .F. ) ;
#118 = EDGE_CURVE ( 'NONE', #121, #119, #113, .T. ) ;
#119 = VERTEX_POINT ( 'NONE', #14 ) ;
#120 = EDGE_CURVE ( 'NONE', #101, #159, #67, .T. ) ;
#121 = VERTEX_POINT ( 'NONE', #91 ) ;
#122 = CARTESIAN_POINT ( 'NONE',  ( 35.00000000000000711, 52.00000000000000000, 3.000000000000000000 ) ) ;
#123 = CARTESIAN_POINT ( 'NONE',  ( 0.0000000000000000000, 0.0000000000000000000, 3.000000000000000000 ) ) ;
#124 = LINE ( 'NONE', #132, #82 ) ;
#125 = APPLICATION_PROTOCOL_DEFINITION ( 'draft international standard', 'automotive_design', 1998, #59 ) ;
#126 = SURFACE_SIDE_STYLE ('',( #94 ) ) ;
#127 = ORIENTED_EDGE ( 'NONE', *, *, #120, .F. ) ;
#128 = EDGE_CURVE ( 'NONE', #101, #156, #11, .T. ) ;
#129 = PRESENTATION_LAYER_ASSIGNMENT (  '', '', ( #116 ) ) ;
#130 = VECTOR ( 'NONE', #109, 1000.000000000000000 ) ;
#131 = ORIENTED_EDGE ( 'NONE', *, *, #107, .T. ) ;
#132 = CARTESIAN_POINT ( 'NONE',  ( 35.00000000000000711, 52.00000000000000000, 3.000000000000000000 ) ) ;
#133 = DIRECTION ( 'NONE',  ( 1.000000000000000000, 0.0000000000000000000, 0.0000000000000000000 ) ) ;
#134 = UNCERTAINTY_MEASURE_WITH_UNIT (LENGTH_MEASURE( 1.000000000000000082E-05 ), #179, 'distance_accuracy_value', 'NONE');
#135 = CARTESIAN_POINT ( 'NONE',  ( 0.0000000000000000000, 52.00000000000000000, 0.0000000000000000000 ) ) ;
#136 = AXIS2_PLACEMENT_3D ( 'NONE', #20, #47, #97 ) ;
#137 = LINE ( 'NONE', #66, #167 ) ;
#138 = DIRECTION ( 'NONE',  ( -0.0000000000000000000, -0.0000000000000000000, -1.000000000000000000 ) ) ;
#139 = SURFACE_STYLE_USAGE ( .BOTH. , #172 ) ;
#140 = DIRECTION ( 'NONE',  ( -1.000000000000000000, 0.0000000000000000000, -0.0000000000000000000 ) ) ;
#141 = ADVANCED_FACE ( 'NONE', ( #190 ), #74, .F. ) ;
#142 =( GEOMETRIC_REPRESENTATION_CONTEXT ( 3 ) GLOBAL_UNCERTAINTY_ASSIGNED_CONTEXT ( ( #105 ) ) GLOBAL_UNIT_ASSIGNED_CONTEXT ( ( #144, #176, #96 ) ) REPRESENTATION_CONTEXT ( 'NONE', 'WORKASPACE' ) );
#143 = LINE ( 'NONE', #196, #164 ) ;
#144 =( LENGTH_UNIT ( ) NAMED_UNIT ( * ) SI_UNIT ( .MILLI., .METRE. ) );
#145 = DIRECTION ( 'NONE',  ( -0.0000000000000000000, -1.000000000000000000, -0.0000000000000000000 ) ) ;
#146 = COLOUR_RGB ( '',0.7529411764705882248, 0.7529411764705882248, 0.7529411764705882248 ) ;
#147 = ORIENTED_EDGE ( 'NONE', *, *, #45, .T. ) ;
#148 = ORIENTED_EDGE ( 'NONE', *, *, #27, .F. ) ;
#149 = PRODUCT_DEFINITION_SHAPE ( 'NONE', 'NONE',  #86 ) ;
#150 = CARTESIAN_POINT ( 'NONE',  ( 0.0000000000000000000, 52.00000000000000000, 3.000000000000000000 ) ) ;
#151 = PRESENTATION_LAYER_ASSIGNMENT (  '', '', ( #48 ) ) ;
#152 = ORIENTED_EDGE ( 'NONE', *, *, #118, .F. ) ;
#153 = EDGE_LOOP ( 'NONE', ( #187, #35, #117, #163 ) ) ;
#154 = DIRECTION ( 'NONE',  ( 0.0000000000000000000, 0.0000000000000000000, 1.000000000000000000 ) ) ;
#155 = SURFACE_STYLE_USAGE ( .BOTH. , #126 ) ;
#156 = VERTEX_POINT ( 'NONE', #122 ) ;
#157 = ADVANCED_FACE ( 'NONE', ( #25 ), #93, .F. ) ;
#158 = LINE ( 'NONE', #111, #130 ) ;
#159 = VERTEX_POINT ( 'NONE', #201 ) ;
#160 = DIRECTION ( 'NONE',  ( 0.0000000000000000000, 1.000000000000000000, 0.0000000000000000000 ) ) ;
#161 = CARTESIAN_POINT ( 'NONE',  ( 0.0000000000000000000, 52.00000000000000000, 3.000000000000000000 ) ) ;
#162 = EDGE_CURVE ( 'NONE', #65, #119, #87, .T. ) ;
#163 = ORIENTED_EDGE ( 'NONE', *, *, #80, .T. ) ;
#164 = VECTOR ( 'NONE', #133, 1000.000000000000000 ) ;
#165 = CARTESIAN_POINT ( 'NONE',  ( 35.00000000000000711, 0.0000000000000000000, 3.000000000000000000 ) ) ;
#166 = AXIS2_PLACEMENT_3D ( 'NONE', #189, #114, #90 ) ;
#167 = VECTOR ( 'NONE', #24, 1000.000000000000000 ) ;
#168 =( NAMED_UNIT ( * ) SI_UNIT ( $, .STERADIAN. ) SOLID_ANGLE_UNIT ( ) );
#169 = PRODUCT_CONTEXT ( 'NONE', #59, 'mechanical' ) ;
#170 = DIRECTION ( 'NONE',  ( 0.0000000000000000000, 1.000000000000000000, 0.0000000000000000000 ) ) ;
#171 =( LENGTH_UNIT ( ) NAMED_UNIT ( * ) SI_UNIT ( .MILLI., .METRE. ) );
#172 = SURFACE_SIDE_STYLE ('',( #60 ) ) ;
#173 =( GEOMETRIC_REPRESENTATION_CONTEXT ( 3 ) GLOBAL_UNCERTAINTY_ASSIGNED_CONTEXT ( ( #200 ) ) GLOBAL_UNIT_ASSIGNED_CONTEXT ( ( #171, #42, #2 ) ) REPRESENTATION_CONTEXT ( 'NONE', 'WORKASPACE' ) );
#174 = PRESENTATION_STYLE_ASSIGNMENT (( #139 ) ) ;
#175 = ORIENTED_EDGE ( 'NONE', *, *, #8, .T. ) ;
#176 =( NAMED_UNIT ( * ) PLANE_ANGLE_UNIT ( ) SI_UNIT ( $, .RADIAN. ) );
#177 = ADVANCED_FACE ( 'NONE', ( #180 ), #178, .F. ) ;
#178 = PLANE ( 'NONE',  #136 ) ;
#179 =( LENGTH_UNIT ( ) NAMED_UNIT ( * ) SI_UNIT ( .MILLI., .METRE. ) );
#180 = FACE_OUTER_BOUND ( 'NONE', #32, .T. ) ;
#181 = FILL_AREA_STYLE ('',( #46 ) ) ;
#182 = ORIENTED_EDGE ( 'NONE', *, *, #162, .T. ) ;
#183 = DIRECTION ( 'NONE',  ( -1.000000000000000000, -0.0000000000000000000, -0.0000000000000000000 ) ) ;
#184 =( GEOMETRIC_REPRESENTATION_CONTEXT ( 3 ) GLOBAL_UNCERTAINTY_ASSIGNED_CONTEXT ( ( #134 ) ) GLOBAL_UNIT_ASSIGNED_CONTEXT ( ( #179, #64, #168 ) ) REPRESENTATION_CONTEXT ( 'NONE', 'WORKASPACE' ) );
#185 = CARTESIAN_POINT ( 'NONE',  ( 35.00000000000000711, 52.00000000000000000, 0.0000000000000000000 ) ) ;
#186 = MANIFOLD_SOLID_BREP ( 'Boss-Extrude1', #197 ) ;
#187 = ORIENTED_EDGE ( 'NONE', *, *, #27, .T. ) ;
#188 = PLANE ( 'NONE',  #84 ) ;
#189 = CARTESIAN_POINT ( 'NONE',  ( 35.00000000000000711, 0.0000000000000000000, 3.000000000000000000 ) ) ;
#190 = FACE_OUTER_BOUND ( 'NONE', #55, .T. ) ;
#191 = ORIENTED_EDGE ( 'NONE', *, *, #128, .T. ) ;
#192 = PRODUCT_DEFINITION_FORMATION_WITH_SPECIFIED_SOURCE ( 'ANY', '', #198, .NOT_KNOWN. ) ;
#193 = ORIENTED_EDGE ( 'NONE', *, *, #80, .F. ) ;
#194 = CARTESIAN_POINT ( 'NONE',  ( 35.00000000000000711, 0.0000000000000000000, 0.0000000000000000000 ) ) ;
#195 = ORIENTED_EDGE ( 'NONE', *, *, #12, .T. ) ;
#196 = CARTESIAN_POINT ( 'NONE',  ( 0.0000000000000000000, 0.0000000000000000000, 0.0000000000000000000 ) ) ;
#197 = CLOSED_SHELL ( 'NONE', ( #177, #141, #157, #83, #99, #98 ) ) ;
#198 = PRODUCT ( 'TTN166720-E0W', 'TTN166720-E0W', '', ( #169 ) ) ;
#199 = ORIENTED_EDGE ( 'NONE', *, *, #100, .F. ) ;
#200 = UNCERTAINTY_MEASURE_WITH_UNIT (LENGTH_MEASURE( 1.000000000000000082E-05 ), #171, 'distance_accuracy_value', 'NONE');
#201 = CARTESIAN_POINT ( 'NONE',  ( 35.00000000000000711, 0.0000000000000000000, 0.0000000000000000000 ) ) ;
#202 = VECTOR ( 'NONE', #15, 1000.000000000000000 ) ;
ENDSEC;
END-ISO-10303-21;
