ISO-10303-21;
HEADER;
FILE_DESCRIPTION (( 'STEP AP203' ),
    '1' );
FILE_NAME ('Web Model 64408.STEP',
    '2017-01-31T19:06:45',
    ( '' ),
    ( '' ),
    'SwSTEP 2.0',
    'SolidWorks 2016',
    '' );
FILE_SCHEMA (( 'CONFIG_CONTROL_DESIGN' ));
ENDSEC;

DATA;
#1 = MANIFOLD_SOLID_BREP ( 'Extrude1', #183 ) ;
#2 = CC_DESIGN_PERSON_AND_ORGANIZATION_ASSIGNMENT ( #32, #202, ( #94 ) ) ;
#3 =( NAMED_UNIT ( * ) PLANE_ANGLE_UNIT ( ) SI_UNIT ( $, .RADIAN. ) );
#4 = EDGE_CURVE ( 'NONE', #25, #76, #164, .T. ) ;
#5 = EDGE_CURVE ( 'NONE', #76, #118, #83, .T. ) ;
#6 = APPROVAL_DATE_TIME ( #231, #60 ) ;
#7 = APPROVAL_ROLE ( '' ) ;
#8 = CC_DESIGN_DATE_AND_TIME_ASSIGNMENT ( #215, #147, ( #12 ) ) ;
#9 = APPROVAL_DATE_TIME ( #18, #93 ) ;
#10 = AXIS2_PLACEMENT_3D ( 'NONE', #152, #214, #84 ) ;
#11 = PLANE ( 'NONE',  #141 ) ;
#12 = SECURITY_CLASSIFICATION ( '', '', #221 ) ;
#13 = ORIENTED_EDGE ( 'NONE', *, *, #208, .F. ) ;
#14 = ORIENTED_EDGE ( 'NONE', *, *, #187, .T. ) ;
#15 = DIRECTION ( 'NONE',  ( -0.0000000000000000000, 0.0000000000000000000, 1.000000000000000000 ) ) ;
#16 = PLANE ( 'NONE',  #204 ) ;
#17 = CARTESIAN_POINT ( 'NONE',  ( -42.50000000000000700, 30.00000000000000000, -1.000000000000000000 ) ) ;
#18 = DATE_AND_TIME ( #117, #167 ) ;
#19 = APPROVAL_ROLE ( '' ) ;
#20 = ORIENTED_EDGE ( 'NONE', *, *, #208, .T. ) ;
#21 = CARTESIAN_POINT ( 'NONE',  ( 42.49999999999999300, 30.00000000000000000, -1.000000000000000000 ) ) ;
#22 = CARTESIAN_POINT ( 'NONE',  ( 42.49999999999999300, 30.00000000000000000, 0.0000000000000000000 ) ) ;
#23 = LINE ( 'NONE', #210, #35 ) ;
#24 = ORIENTED_EDGE ( 'NONE', *, *, #5, .T. ) ;
#25 = VERTEX_POINT ( 'NONE', #80 ) ;
#26 = DIRECTION ( 'NONE',  ( -2.312964634635743000E-016, 1.000000000000000000, -0.0000000000000000000 ) ) ;
#27 = CARTESIAN_POINT ( 'NONE',  ( -42.50000000000000700, 30.00000000000000000, 0.0000000000000000000 ) ) ;
#28 = PERSON_AND_ORGANIZATION ( #209, #137 ) ;
#29 = PLANE ( 'NONE',  #10 ) ;
#30 = DIRECTION ( 'NONE',  ( 4.081702296416016400E-017, -1.000000000000000000, 0.0000000000000000000 ) ) ;
#31 = DIRECTION ( 'NONE',  ( -0.0000000000000000000, 0.0000000000000000000, 1.000000000000000000 ) ) ;
#32 = PERSON_AND_ORGANIZATION ( #209, #137 ) ;
#33 = CARTESIAN_POINT ( 'NONE',  ( -42.49999999999999300, -30.00000000000000000, 0.0000000000000000000 ) ) ;
#34 = CARTESIAN_POINT ( 'NONE',  ( 0.0000000000000000000, 0.0000000000000000000, 0.0000000000000000000 ) ) ;
#35 = VECTOR ( 'NONE', #26, 1000.000000000000000 ) ;
#36 = CARTESIAN_POINT ( 'NONE',  ( -42.49999999999999300, -30.00000000000000000, 0.0000000000000000000 ) ) ;
#37 = APPROVAL_STATUS ( 'not_yet_approved' ) ;
#38 = CALENDAR_DATE ( 2017, 31, 1 ) ;
#39 = VECTOR ( 'NONE', #102, 1000.000000000000000 ) ;
#40 = EDGE_LOOP ( 'NONE', ( #130, #170, #95, #91 ) ) ;
#41 = VERTEX_POINT ( 'NONE', #211 ) ;
#42 = PERSON_AND_ORGANIZATION ( #209, #137 ) ;
#43 = AXIS2_PLACEMENT_3D ( 'NONE', #233, #133, #172 ) ;
#44 = DIRECTION ( 'NONE',  ( 0.0000000000000000000, 0.0000000000000000000, 1.000000000000000000 ) ) ;
#45 = CC_DESIGN_APPROVAL ( #93, ( #225 ) ) ;
#46 = LINE ( 'NONE', #237, #39 ) ;
#47 = DIRECTION ( 'NONE',  ( 1.000000000000000000, 0.0000000000000000000, 0.0000000000000000000 ) ) ;
#48 = CC_DESIGN_PERSON_AND_ORGANIZATION_ASSIGNMENT ( #28, #50, ( #168 ) ) ;
#49 = PERSON_AND_ORGANIZATION_ROLE ( 'creator' ) ;
#50 = PERSON_AND_ORGANIZATION_ROLE ( 'design_owner' ) ;
#51 = ORIENTED_EDGE ( 'NONE', *, *, #73, .F. ) ;
#52 = DESIGN_CONTEXT ( 'detailed design', #126, 'design' ) ;
#53 = DIRECTION ( 'NONE',  ( 0.0000000000000000000, 0.0000000000000000000, 1.000000000000000000 ) ) ;
#54 = PERSON_AND_ORGANIZATION ( #209, #137 ) ;
#55 = CC_DESIGN_PERSON_AND_ORGANIZATION_ASSIGNMENT ( #109, #49, ( #225 ) ) ;
#56 = DIRECTION ( 'NONE',  ( 2.312964634635743000E-016, -1.000000000000000000, 0.0000000000000000000 ) ) ;
#57 = LINE ( 'NONE', #165, #112 ) ;
#58 = ORIENTED_EDGE ( 'NONE', *, *, #226, .T. ) ;
#59 = APPROVAL_ROLE ( '' ) ;
#60 = APPROVAL ( #161, 'UNSPECIFIED' ) ;
#61 = CARTESIAN_POINT ( 'NONE',  ( -42.49999999999999300, -30.00000000000000000, -1.000000000000000000 ) ) ;
#62 = ADVANCED_FACE ( 'NONE', ( #114 ), #82, .T. ) ;
#63 = COORDINATED_UNIVERSAL_TIME_OFFSET ( 5, 0, .BEHIND. ) ;
#64 = EDGE_LOOP ( 'NONE', ( #14, #148, #228, #69 ) ) ;
#65 = ADVANCED_FACE ( 'NONE', ( #234 ), #100, .T. ) ;
#66 = CC_DESIGN_PERSON_AND_ORGANIZATION_ASSIGNMENT ( #136, #220, ( #94 ) ) ;
#67 = LINE ( 'NONE', #156, #169 ) ;
#68 = VECTOR ( 'NONE', #56, 1000.000000000000000 ) ;
#69 = ORIENTED_EDGE ( 'NONE', *, *, #212, .T. ) ;
#70 = ORIENTED_EDGE ( 'NONE', *, *, #5, .F. ) ;
#71 = APPLICATION_CONTEXT ( 'configuration controlled 3d designs of mechanical parts and assemblies' ) ;
#72 = CC_DESIGN_APPROVAL ( #60, ( #12 ) ) ;
#73 = EDGE_CURVE ( 'NONE', #118, #199, #23, .T. ) ;
#74 = APPROVAL_DATE_TIME ( #104, #111 ) ;
#75 = LINE ( 'NONE', #207, #144 ) ;
#76 = VERTEX_POINT ( 'NONE', #116 ) ;
#77 = CALENDAR_DATE ( 2017, 31, 1 ) ;
#78 = FACE_OUTER_BOUND ( 'NONE', #177, .T. ) ;
#79 = ADVANCED_BREP_SHAPE_REPRESENTATION ( 'Web Model 64408', ( #1, #175 ), #235 ) ;
#80 = CARTESIAN_POINT ( 'NONE',  ( -42.49999999999999300, -30.00000000000000000, -1.000000000000000000 ) ) ;
#81 = APPROVAL_PERSON_ORGANIZATION ( #88, #93, #19 ) ;
#82 = PLANE ( 'NONE',  #159 ) ;
#83 = LINE ( 'NONE', #150, #191 ) ;
#84 = DIRECTION ( 'NONE',  ( -2.312964634635743400E-016, 1.000000000000000000, 0.0000000000000000000 ) ) ;
#85 = ADVANCED_FACE ( 'NONE', ( #174 ), #11, .F. ) ;
#86 = CARTESIAN_POINT ( 'NONE',  ( -42.49999999999999300, -30.00000000000000000, -1.000000000000000000 ) ) ;
#87 = LOCAL_TIME ( 14, 6, 45.00000000000000000, #63 ) ;
#88 = PERSON_AND_ORGANIZATION ( #209, #137 ) ;
#89 =( LENGTH_UNIT ( ) NAMED_UNIT ( * ) SI_UNIT ( .MILLI., .METRE. ) );
#90 = DIRECTION ( 'NONE',  ( 0.0000000000000000000, 0.0000000000000000000, 1.000000000000000000 ) ) ;
#91 = ORIENTED_EDGE ( 'NONE', *, *, #4, .F. ) ;
#92 = PERSON_AND_ORGANIZATION_ROLE ( 'classification_officer' ) ;
#93 = APPROVAL ( #37, 'UNSPECIFIED' ) ;
#94 = PRODUCT_DEFINITION_FORMATION_WITH_SPECIFIED_SOURCE ( 'ANY', '', #168, .NOT_KNOWN. ) ;
#95 = ORIENTED_EDGE ( 'NONE', *, *, #125, .F. ) ;
#96 = DIRECTION ( 'NONE',  ( 0.0000000000000000000, -0.0000000000000000000, 1.000000000000000000 ) ) ;
#97 = CARTESIAN_POINT ( 'NONE',  ( -42.49999999999999300, -30.00000000000000000, -1.000000000000000000 ) ) ;
#98 = LOCAL_TIME ( 14, 6, 45.00000000000000000, #145 ) ;
#99 = EDGE_LOOP ( 'NONE', ( #121, #158, #224, #24 ) ) ;
#100 = PLANE ( 'NONE',  #43 ) ;
#101 = CC_DESIGN_DATE_AND_TIME_ASSIGNMENT ( #128, #181, ( #225 ) ) ;
#102 = DIRECTION ( 'NONE',  ( -2.312964634635743000E-016, 1.000000000000000000, -0.0000000000000000000 ) ) ;
#103 = DIRECTION ( 'NONE',  ( 1.000000000000000000, 0.0000000000000000000, 0.0000000000000000000 ) ) ;
#104 = DATE_AND_TIME ( #171, #87 ) ;
#105 = APPLICATION_PROTOCOL_DEFINITION ( 'international standard', 'config_control_design', 1994, #71 ) ;
#106 = APPROVAL_STATUS ( 'not_yet_approved' ) ;
#107 =( NAMED_UNIT ( * ) SI_UNIT ( $, .STERADIAN. ) SOLID_ANGLE_UNIT ( ) );
#108 = VERTEX_POINT ( 'NONE', #17 ) ;
#109 = PERSON_AND_ORGANIZATION ( #209, #137 ) ;
#110 = ORIENTED_EDGE ( 'NONE', *, *, #187, .F. ) ;
#111 = APPROVAL ( #106, 'UNSPECIFIED' ) ;
#112 = VECTOR ( 'NONE', #200, 1000.000000000000000 ) ;
#113 = COORDINATED_UNIVERSAL_TIME_OFFSET ( 5, 0, .BEHIND. ) ;
#114 = FACE_OUTER_BOUND ( 'NONE', #149, .T. ) ;
#115 = CARTESIAN_POINT ( 'NONE',  ( -42.50000000000000700, 30.00000000000000000, -1.000000000000000000 ) ) ;
#116 = CARTESIAN_POINT ( 'NONE',  ( 42.50000000000000700, -29.99999999999999600, -1.000000000000000000 ) ) ;
#117 = CALENDAR_DATE ( 2017, 31, 1 ) ;
#118 = VERTEX_POINT ( 'NONE', #142 ) ;
#119 = CC_DESIGN_SECURITY_CLASSIFICATION ( #12, ( #94 ) ) ;
#120 = APPROVAL_PERSON_ORGANIZATION ( #42, #111, #7 ) ;
#121 = ORIENTED_EDGE ( 'NONE', *, *, #194, .F. ) ;
#122 = MECHANICAL_CONTEXT ( 'NONE', #71, 'mechanical' ) ;
#123 = CARTESIAN_POINT ( 'NONE',  ( -42.50000000000000700, 30.00000000000000000, -1.000000000000000000 ) ) ;
#124 = DIRECTION ( 'NONE',  ( 1.000000000000000000, 4.081702296416016400E-017, 0.0000000000000000000 ) ) ;
#125 = EDGE_CURVE ( 'NONE', #76, #41, #46, .T. ) ;
#126 = APPLICATION_CONTEXT ( 'configuration controlled 3d designs of mechanical parts and assemblies' ) ;
#127 = LOCAL_TIME ( 14, 6, 45.00000000000000000, #143 ) ;
#128 = DATE_AND_TIME ( #77, #127 ) ;
#129 = VERTEX_POINT ( 'NONE', #27 ) ;
#130 = ORIENTED_EDGE ( 'NONE', *, *, #201, .F. ) ;
#131 = UNCERTAINTY_MEASURE_WITH_UNIT (LENGTH_MEASURE( 1.000000000000000100E-005 ), #89, 'distance_accuracy_value', 'NONE');
#132 = PRODUCT_RELATED_PRODUCT_CATEGORY ( 'detail', '', ( #168 ) ) ;
#133 = DIRECTION ( 'NONE',  ( -1.000000000000000000, -2.312964634635743400E-016, 0.0000000000000000000 ) ) ;
#134 = VECTOR ( 'NONE', #53, 1000.000000000000000 ) ;
#135 = VECTOR ( 'NONE', #176, 1000.000000000000000 ) ;
#136 = PERSON_AND_ORGANIZATION ( #209, #137 ) ;
#137 = ORGANIZATION ( 'UNSPECIFIED', 'UNSPECIFIED', '' ) ;
#138 = ADVANCED_FACE ( 'NONE', ( #227 ), #16, .T. ) ;
#139 = FACE_OUTER_BOUND ( 'NONE', #99, .T. ) ;
#140 = CC_DESIGN_PERSON_AND_ORGANIZATION_ASSIGNMENT ( #54, #92, ( #12 ) ) ;
#141 = AXIS2_PLACEMENT_3D ( 'NONE', #97, #15, #103 ) ;
#142 = CARTESIAN_POINT ( 'NONE',  ( 42.50000000000000700, -29.99999999999999600, 0.0000000000000000000 ) ) ;
#143 = COORDINATED_UNIVERSAL_TIME_OFFSET ( 5, 0, .BEHIND. ) ;
#144 = VECTOR ( 'NONE', #90, 1000.000000000000000 ) ;
#145 = COORDINATED_UNIVERSAL_TIME_OFFSET ( 5, 0, .BEHIND. ) ;
#146 = EDGE_CURVE ( 'NONE', #41, #108, #67, .T. ) ;
#147 = DATE_TIME_ROLE ( 'classification_date' ) ;
#148 = ORIENTED_EDGE ( 'NONE', *, *, #194, .T. ) ;
#149 = EDGE_LOOP ( 'NONE', ( #188, #213, #198, #20 ) ) ;
#150 = CARTESIAN_POINT ( 'NONE',  ( 42.50000000000000700, -29.99999999999999600, -1.000000000000000000 ) ) ;
#151 = ORIENTED_EDGE ( 'NONE', *, *, #125, .T. ) ;
#152 = CARTESIAN_POINT ( 'NONE',  ( 42.49999999999999300, 30.00000000000000000, -1.000000000000000000 ) ) ;
#153 = LINE ( 'NONE', #123, #68 ) ;
#154 = PLANE ( 'NONE',  #182 ) ;
#155 = ADVANCED_FACE ( 'NONE', ( #139 ), #154, .T. ) ;
#156 = CARTESIAN_POINT ( 'NONE',  ( -42.50000000000000700, 30.00000000000000000, -1.000000000000000000 ) ) ;
#157 = VECTOR ( 'NONE', #184, 1000.000000000000000 ) ;
#158 = ORIENTED_EDGE ( 'NONE', *, *, #226, .F. ) ;
#159 = AXIS2_PLACEMENT_3D ( 'NONE', #115, #230, #96 ) ;
#160 = DIRECTION ( 'NONE',  ( 0.0000000000000000000, 0.0000000000000000000, 1.000000000000000000 ) ) ;
#161 = APPROVAL_STATUS ( 'not_yet_approved' ) ;
#162 = APPROVAL_PERSON_ORGANIZATION ( #185, #60, #59 ) ;
#163 = VECTOR ( 'NONE', #124, 1000.000000000000000 ) ;
#164 = LINE ( 'NONE', #61, #179 ) ;
#165 = CARTESIAN_POINT ( 'NONE',  ( -42.50000000000000700, 30.00000000000000000, 0.0000000000000000000 ) ) ;
#166 = CC_DESIGN_APPROVAL ( #111, ( #94 ) ) ;
#167 = LOCAL_TIME ( 14, 6, 45.00000000000000000, #218 ) ;
#168 = PRODUCT ( 'Web Model 64408', 'Web Model 64408', '', ( #122 ) ) ;
#169 = VECTOR ( 'NONE', #178, 1000.000000000000000 ) ;
#170 = ORIENTED_EDGE ( 'NONE', *, *, #146, .F. ) ;
#171 = CALENDAR_DATE ( 2017, 31, 1 ) ;
#172 = DIRECTION ( 'NONE',  ( 2.312964634635743400E-016, -1.000000000000000000, 0.0000000000000000000 ) ) ;
#173 = DIRECTION ( 'NONE',  ( 1.000000000000000000, 0.0000000000000000000, 0.0000000000000000000 ) ) ;
#174 = FACE_OUTER_BOUND ( 'NONE', #40, .T. ) ;
#175 = AXIS2_PLACEMENT_3D ( 'NONE', #34, #160, #47 ) ;
#176 = DIRECTION ( 'NONE',  ( 2.312964634635743000E-016, -1.000000000000000000, 0.0000000000000000000 ) ) ;
#177 = EDGE_LOOP ( 'NONE', ( #51, #70, #151, #193 ) ) ;
#178 = DIRECTION ( 'NONE',  ( -1.000000000000000000, -0.0000000000000000000, -0.0000000000000000000 ) ) ;
#179 = VECTOR ( 'NONE', #189, 1000.000000000000000 ) ;
#180 = EDGE_LOOP ( 'NONE', ( #110, #13, #206, #58 ) ) ;
#181 = DATE_TIME_ROLE ( 'creation_date' ) ;
#182 = AXIS2_PLACEMENT_3D ( 'NONE', #86, #30, #236 ) ;
#183 = CLOSED_SHELL ( 'NONE', ( #65, #62, #190, #155, #85, #138 ) ) ;
#184 = DIRECTION ( 'NONE',  ( 0.0000000000000000000, 0.0000000000000000000, 1.000000000000000000 ) ) ;
#185 = PERSON_AND_ORGANIZATION ( #209, #137 ) ;
#186 = SHAPE_DEFINITION_REPRESENTATION ( #192, #79 ) ;
#187 = EDGE_CURVE ( 'NONE', #129, #229, #223, .T. ) ;
#188 = ORIENTED_EDGE ( 'NONE', *, *, #212, .F. ) ;
#189 = DIRECTION ( 'NONE',  ( 1.000000000000000000, 4.081702296416016400E-017, 0.0000000000000000000 ) ) ;
#190 = ADVANCED_FACE ( 'NONE', ( #78 ), #29, .T. ) ;
#191 = VECTOR ( 'NONE', #44, 1000.000000000000000 ) ;
#192 = PRODUCT_DEFINITION_SHAPE ( 'NONE', 'NONE',  #225 ) ;
#193 = ORIENTED_EDGE ( 'NONE', *, *, #197, .T. ) ;
#194 = EDGE_CURVE ( 'NONE', #229, #118, #232, .T. ) ;
#195 = LOCAL_TIME ( 14, 6, 45.00000000000000000, #113 ) ;
#196 = LINE ( 'NONE', #21, #157 ) ;
#197 = EDGE_CURVE ( 'NONE', #41, #199, #196, .T. ) ;
#198 = ORIENTED_EDGE ( 'NONE', *, *, #146, .T. ) ;
#199 = VERTEX_POINT ( 'NONE', #22 ) ;
#200 = DIRECTION ( 'NONE',  ( -1.000000000000000000, -0.0000000000000000000, -0.0000000000000000000 ) ) ;
#201 = EDGE_CURVE ( 'NONE', #108, #25, #153, .T. ) ;
#202 = PERSON_AND_ORGANIZATION_ROLE ( 'creator' ) ;
#203 = LINE ( 'NONE', #205, #134 ) ;
#204 = AXIS2_PLACEMENT_3D ( 'NONE', #33, #31, #173 ) ;
#205 = CARTESIAN_POINT ( 'NONE',  ( -42.50000000000000700, 30.00000000000000000, -1.000000000000000000 ) ) ;
#206 = ORIENTED_EDGE ( 'NONE', *, *, #201, .T. ) ;
#207 = CARTESIAN_POINT ( 'NONE',  ( -42.49999999999999300, -30.00000000000000000, -1.000000000000000000 ) ) ;
#208 = EDGE_CURVE ( 'NONE', #108, #129, #203, .T. ) ;
#209 = PERSON ( 'UNSPECIFIED', 'UNSPECIFIED', 'UNSPECIFIED', ('UNSPECIFIED'), ('UNSPECIFIED'), ('UNSPECIFIED') ) ;
#210 = CARTESIAN_POINT ( 'NONE',  ( 42.49999999999999300, 30.00000000000000000, 0.0000000000000000000 ) ) ;
#211 = CARTESIAN_POINT ( 'NONE',  ( 42.49999999999999300, 30.00000000000000000, -1.000000000000000000 ) ) ;
#212 = EDGE_CURVE ( 'NONE', #199, #129, #57, .T. ) ;
#213 = ORIENTED_EDGE ( 'NONE', *, *, #197, .F. ) ;
#214 = DIRECTION ( 'NONE',  ( 1.000000000000000000, 2.312964634635743400E-016, -0.0000000000000000000 ) ) ;
#215 = DATE_AND_TIME ( #222, #195 ) ;
#216 = CARTESIAN_POINT ( 'NONE',  ( -42.50000000000000700, 30.00000000000000000, 0.0000000000000000000 ) ) ;
#217 = CARTESIAN_POINT ( 'NONE',  ( -42.49999999999999300, -30.00000000000000000, 0.0000000000000000000 ) ) ;
#218 = COORDINATED_UNIVERSAL_TIME_OFFSET ( 5, 0, .BEHIND. ) ;
#219 = APPLICATION_PROTOCOL_DEFINITION ( 'international standard', 'config_control_design', 1994, #126 ) ;
#220 = PERSON_AND_ORGANIZATION_ROLE ( 'design_supplier' ) ;
#221 = SECURITY_CLASSIFICATION_LEVEL ( 'unclassified' ) ;
#222 = CALENDAR_DATE ( 2017, 31, 1 ) ;
#223 = LINE ( 'NONE', #216, #135 ) ;
#224 = ORIENTED_EDGE ( 'NONE', *, *, #4, .T. ) ;
#225 = PRODUCT_DEFINITION ( 'UNKNOWN', '', #94, #52 ) ;
#226 = EDGE_CURVE ( 'NONE', #25, #229, #75, .T. ) ;
#227 = FACE_OUTER_BOUND ( 'NONE', #64, .T. ) ;
#228 = ORIENTED_EDGE ( 'NONE', *, *, #73, .T. ) ;
#229 = VERTEX_POINT ( 'NONE', #36 ) ;
#230 = DIRECTION ( 'NONE',  ( 0.0000000000000000000, 1.000000000000000000, 0.0000000000000000000 ) ) ;
#231 = DATE_AND_TIME ( #38, #98 ) ;
#232 = LINE ( 'NONE', #217, #163 ) ;
#233 = CARTESIAN_POINT ( 'NONE',  ( -42.50000000000000700, 30.00000000000000000, -1.000000000000000000 ) ) ;
#234 = FACE_OUTER_BOUND ( 'NONE', #180, .T. ) ;
#235 =( GEOMETRIC_REPRESENTATION_CONTEXT ( 3 ) GLOBAL_UNCERTAINTY_ASSIGNED_CONTEXT ( ( #131 ) ) GLOBAL_UNIT_ASSIGNED_CONTEXT ( ( #89, #3, #107 ) ) REPRESENTATION_CONTEXT ( 'NONE', 'WORKASPACE' ) );
#236 = DIRECTION ( 'NONE',  ( 1.000000000000000000, 4.081702296416016400E-017, 0.0000000000000000000 ) ) ;
#237 = CARTESIAN_POINT ( 'NONE',  ( 42.49999999999999300, 30.00000000000000000, -1.000000000000000000 ) ) ;
ENDSEC;
END-ISO-10303-21;
